Muse - Yes Please Chords & Tabs

 

Yes Please Chords & Tabs

Muse Chords & Tabs

Version: 2 Type: Bass Tab 0 ratings
1 star 2 stars 3 stars 4 stars 5 stars
comments

Yes Please Bass Tab

   
Muse - Yes Please (Hullabaloo B-Sides)


Intro
G -------------------------------- x2
D --------------------------------
A --------------------------------
E 00000000222222221111111111111111


G ------------------- x12
D -------------------
A -----356-----356---
E 01230---01230------


G -------------------------------- x1
D --------------------------------
A --------------------------------
E 3-33-1------------3-33-1--------

G ------------------------------------------- x3
D -------------------------------------------
A ----------------------------3-333-33-------
E 0-0-0-0-3-3-3-3-1-1-1-1-1-1----------------


G ------------------------------------------- x1
D -------------------------------------------
A -------------------------------------------
E 0-0-0-0-3-3-3-3-1--------------------------
[ Tab from: http://www.guitartabs.cc/tabs/m/muse/yes_please_btab_ver_2.html ]
G ------------------- x8
D -------------------
A -----356-----356---
E 01230---01230------


G -------------------------------- x1
D --------------------------------
A --------------------------------
E 3-33-1------------3-33-1--------

G ------------------------------------------- x3
D -------------------------------------------
A ----------------------------3-333-33-------
E 0-0-0-0-3-3-3-3-1-1-1-1-1-1----------------


G ------------------------------------------- x1
D -------------------------------------------
A -------------------------------------------
E 0-0-0-0-3-3-3-3-1--------------------------

G ------------------- x4
D -------------------
A -----356-----356---
E 01230---01230------



So there we go, kinda hard to get the 01230 356 bit in the right timing but I
think ive pretty much got it all sorted here, any corrections you wanna make
just email lost_prophet_uk@hotmail.com
Comments