Muse - Uprising Chords & Tabs

 

Uprising Chords & Tabs

Muse Chords & Tabs

Version: 10 Type: Tab 0 ratings
1 star 2 stars 3 stars 4 stars 5 stars
comments

Uprising Tab

Band: Muse
Song: Uprising
Tuning: Drop D

This is my first tab. I had yet to see a complete tab for this song so I
will try to include everything I can.

I tried to line everything up as close as possible to give an idea
of timing but listen to the song to get it all timed right for yourself.

h=hammer on
p=pull off
/=slide up
\=slide down
x=mute note

Synth Lead for intro, 1st chorus and outro (Not guitar but you can use a guitar to cover it)

Effect: Octavator (Shift the pitch up an octave only for synth lead)

e|----------------|----------------|----------------|----------------|
B|10--------------|----------------|----------------|----------------|
G|----------------|10--------------|----------------|----------------|
D|----------------|----------------|----------------|----------------|
A|----------------|-------12-------|13-----13h15p13p|12--------------|
D|----------------|----------------|----------------|----------------|


e|----------------|----------------|----------------|----------------|
B|10--------------|----------------|11-----11h13p11p|10--------------|
G|-------9--------|----------------|----------------|----------------|
D|----------------|11--------------|----------------|----------------|
A|----------------|-------12-------|----------------|----------------|
D|----------------|----------------|----------------|----------------|


e|----------------|----------------|----------------|----------------|
B|10--------------|-------10-------|11---------10p8h|10--------------|
G|---10-----------|---10-----------|----------------|----------------|
D|-------12-------|12---------12---|----------------|----------------|
A|-----------12---|----------------|----------------|----------------|
D|----------------|----------------|----------------|----------------|


e|----------------|----------------|----------------|----------------|
B|10--------------|-------10-------|8-----------6p5h|6---------------|
G|----9-----------|----9-----------|----------------|----------------|
D|-------11-------|11--------------|----------------|----------------|
A|-----------12---|-----------12---|----------------|----------------|
D|----------------|----------------|----------------|----------------|


"Wailing" Guitar part (comes in as the synth lead ends and again half way
through the 1st verse, at the end of the 1st verse, to end the 1st chorus
and to end the synth lead for the outro)

e|----------------|----------------|----------------|-------------------------|
B|----------------|----------------|----------------|------------15----15-----|
G|----------------|----------------|----------------|------------17b19-17b19--|
D|----------------|----------------|----------------|-------------------------|
A|----------------|----------------|----------------|-------------------------|
D|----------------|----------------|----------------|-------------------------|

2nd Verse Guitar Part

e|----------------|----------------|----------------|----------------|
B|----------------|----------------|----------------|----------------|
G|----------------|----------------|----------------|----------------|
D|----------------|----------------|----------------|----------------|
A|----------------|----------------|5-5---5-5-5---5-|5-5---5-5-5---5-|
D|----------------|----------------|----------------|----------------|


"Interchanging mind control"
e|----------------|----------------|----------------|----------------|
B|----------------|----------------|----------------|----------------|
G|----------------|----------------|----------------|----------------|
D|----------------|----------------|----------------|----------------|
A|5-5---5-5-5---5-|5-5---5-5-5-5-5-|5-5---5-5-5---5-|3-3---3-3-3-3-3-|
D|----------------|----------------|----------------|----------------|


e|----------------|----------------|----------------|-------------------------|
B|----------------|----------------|----------------|------------15----15-----|
G|----------------|----------------|----------------|------------17b19-17b19--|
D|----------------|----------------|----------------|-------------------------|
A|4-4---4-4-4---4-|4-4---4-4-4-4-4-|5-5---5-5-5---5-|5-5---5-5----------------|
D|----------------|----------------|----------------|-------------------------|

[ Tab from: http://www.guitartabs.cc/tabs/m/muse/uprising_tab_ver_10.html ]
"Rise up and take the power back"
e|----------------|----------------|----------------|----------------|
B|----------------|----------------|----------------|----------------|
G|----------------|----------------|----------------|----------------|
D|----------------|----------------|----------------|----------------|
A|------5-5-5---5-|5-5---5-5-5-5-5-|5-5---5-5-5---5-|3-3---3-3-3-3-3-|
D|----------------|----------------|----------------|----------------|


e|----------------|----------------|----------------|-------------------------|
B|----------------|----------------|----------------|------------15----15-----|
G|----------------|----------------|----------------|------------17b19-17b19--|
D|----------------|----------------|----------------|-------------------------|
A|4-4---4-4-4---4-|4-4---4-4-4-4-4-|5-5---5-5-5---5-|5-5---5-5----------------|
D|----------------|----------------|----------------|-------------------------|


(No vocal, pre-chorus interlude)
e|----------------|----------------|----------------|----------------|
B|----------------|----------------|----------------|----------------|
G|----------------|----------------|----------------|----------------|
D|----------------|----------------|----------------|----------------|
A|------5-5-5---5-|--5---5-5-5---5-|5-5---5-5-5---5-|--5---5-5-5---5-|
D|----------------|----------------|----------------|----------------|

Chorus

e|5-5---5-5-5---5-|5-5---5-5-5-5-x-|6-6---6-6-6---x-|5-5---5-5-5-5-x-|
B|6-6---6-6-6---6-|6-6---6-6-6-6-x-|8-8---8-8-8---x-|6-6---6-6-6-6-x-|
G|7-7---7-7-7---7-|7-7---7-7-7-7-x-|7-7---7-7-7---x-|5-5---5-5-5-5-x-|
D|7-7---7-7-7---7-|7-7---7-7-7-7-x-|8-8---8-8-8---x-|--------------x-|
A|----------------|----------------|----------------|----------------|
D|----------------|----------------|----------------|----------------|


e|5-5---5-5-5---5-|5-5---5-5-5-5-x-|6-6---6-6-6---x-|5-5---x-------x-|
B|5-5---5-5-5---5-|5-5---5-5-5-5-x-|8-8---8-8-8---x-|6-6---x-5-5-5-x-|
G|6-6---6-6-6---6-|6-6---6-6-6-6-x-|7-7---7-7-7---x-|5-5---x-6-6-6-x-|
D|7-7---7-7-7---7-|7-7---7-7-7-7-x-|8-8---8-8-8---x-|------x-5-5-5-x-|
A|----------------|----------------|----------------|----------------|
D|----------------|----------------|----------------|----------------|


e|5-5---5-5-5---5-|5-5---5-5-5-5-x-|6-6---6-6-6---x-|5-5---x-------x-|
B|6-6---6-6-6---6-|6-6---6-6-6-6-x-|8-8---8-8-8---x-|6-6---x-6-6-6-x-|
G|7-7---7-7-7---7-|7-7---7-7-7-7-x-|7-7---7-7-7---x-|5-5---x-7-7-7-x-|
D|7-7---7-7-7---7-|7-7---7-7-7-7-x-|8-8---8-8-8---x-|------x-6-6-6-x-|
A|----------------|----------------|----------------|----------------|
D|----------------|----------------|----------------|----------------|


e|5-5---5-5-5---5-|5-5---5-5-5-5-x-|6-6---6-6-6---x-|5-5---x---------------------|
B|5-5---5-5-5---5-|5-5---5-5-5-5-x-|8-8---8-8-8---x-|6-6---x-5-5-15----15--------|
G|6-6---6-6-6---6-|6-6---6-6-6-6-x-|7-7---7-7-7---x-|5-5---x-6-6-17b19-17b19-----|
D|7-7---7-7-7---7-|7-7---7-7-7-7-x-|8-8---8-8-8---x-|------x-5-5-----------------|
A|----------------|----------------|----------------|----------------------------|
D|----------------|----------------|----------------|----------------------------|


Guitar Solo (played 3 times)

e|------------------|------------------|------------------|------------------|
B|------------------|------------------|------------------|------------------|
G|------------------|------------------|------------------|------------------|
D|------------------|------------------|------------------|------------------|
A|-------------3h4h5|-------------3h4h5|-------------3h4h5|-------------3h4h5|
D|0---3---5h6h7-----|0---3---5h6h7-----|0---3---5h6h7-----|0---3---5h6h7-----|


e|----------------|----------------|----------------|----------------------------|
B|--10--10--10--10|--10--10--10----|----------------|------------15----15--------|
G|14--13--12--10--|----------------|----------------|------------17b19-17b19-----|
D|----------------|14--12--11--12\-|----------------|----------------------------|
A|----------------|----------------|13\12/13\12--12-|12--10-12-------------------|
D|----------------|----------------|----------------|----------------------------|

(wailing guitar interlude before last chorus played only once)
e|15------15------15------15------|15------15------15------15------|
B|17b19---17b19---17b19---17b19---|17b19---17b19---17b19---17b19---|
G|--------------------------------|--------------------------------|
D|--------------------------------|--------------------------------|
A|--------------------------------|--------------------------------|
D|--------------------------------|--------------------------------|
Comments