Muse - Uno Chords & Tabs

 

Uno Chords & Tabs

Muse Chords & Tabs

Version: 3 Type: Bass Tab 0 ratings
1 star 2 stars 3 stars 4 stars 5 stars
comments

Uno Bass Tab

Standard Tuning

This is similar to one someone else did but I've tweaked it to get it right.

/ = slide up
\ = slide down
r = let note ring

Part 1
G|--------|
D|--------|
A|--------|
E|-0/12\0-|

Part 2
G|------------------------------------------------------------------|
D|-----2-------2-------2-------2------1-4-1-----2-------2-------2---|
A|----2--2----2--2-00-3--3-00-3--3-22-------00-3--3----2--2----2--2-|
E|-00------00---------------------------------------00------00------|
                                  
Part 3
G|----------------------------------------------------|
D|-----2-------2-------2-------2------1-4-1-----2-----|
A|----2--2----2--2-00-3--3-00-3--3-22-------00-3--3---|
E|-00------00---------------------------------------0-|
[ Tab from: http://www.guitartabs.cc/tabs/m/muse/uno_btab_ver_3.html ]
Part 4
G|------------------------------------------------------------------|
D|--------14---------14-----------14-----------14----------13-16-13-|
A|------14--14-----14--14-12-12-15--15--12-12-15--15--14-14---------|
E|-12r--------12-12-------------------------------------------------|

G|----------------------------------------|
D|--------14----------14------------------|  Play it this way first time
A|-12-12-15--15-----14--14----------------|
E|-------------12-12-------12----0r-/12\0-|

G|----------------------------------------|
D|--------14----------14------------------|  Play it this way second time
A|-12-12-15--15-----14--14----------------|
E|-------------12-12-------0-------0/12\0-|

Part 5

G|------------------------------------------------------------|
D|-----2-------2-------2-------2------1-4-1-----2-------------|
A|----2--2----2--2-00-3--3-00-3--3-22-------00-3--3-----------|
E|-00------00---------------------------------------0r--------|


Part 1
Part 2
Part 3
-break-
Part 4
Part 3
Part 3 Softly
-break-
Part 4
Part 2 (x 2)
There's a crazy bit here that I can't figure out
Part 5
Comments