Muse - Time Is Running Out Chords & Tabs

 

Time Is Running Out Chords & Tabs

Muse Chords & Tabs

Version: 5 Type: Bass Tab

Time Is Running Out Bass Tab

Main riff                                                                              
G||------------------------|------------------------|------------------------|------------------------|
D||------------------------|------------------------|------------------------|------------------------|
A||------------------------|----------------5----6--|-------7--------7-------|-------3--------5-------|
E||--5----8--5--5--8----5--|--7----5--7--7----------|--0-------0--0-------0--|--1-------1--3-------3--|


Pre-chorus                                                                        
G||--------------------------|--------------------------|--------------------------|--------------------------|
D||--------------------------|--------------------------|--------------------------|--------------------------|
A||--------------------------|--------------------------|--------------------------|--------------------------|
E||--1--1--1--1--1--1--1--1--|--3--3--3--3--3--3--3--3--|--5--5--5--5--5--5--5--5--|--1--1--1--1--1--1--1--1--|


Chorus 1                                                                       
G||--------------------------|--------------------------|--------------------------|--------------------------|
D||--------------------------|--------------------------|--------------------------|--------------------------|
A||--------------------------|--------------------------|--------------------------|--------------------------|
E||--1--1--1--1--1--1--1--1--|--3--3--3--3--3--3--3--3--|--5--5--5--5--5--5--5--5--|--8--8--8--8--8--8--8--8--|

G||--------------------------|--------------------------|--------------------------|------------------------|
D||--------------------------|--------------------------|--------------------------|------------------------|
A||--------------------------|--------------------------|--------------------------|-------3--------5-------|
E||--1--1--1--1--1--1--1--1--|--3--3--3--3--3--3--3--3--|--5--5--5--5--5--5--5--5--|--1-------1--3-------3--|


Bridge 1                                                                      
G||----------------------|----------------------|-----------------------|------------------------|
D||----------------------|----------------------|-----------------------|------------------------|
A||----------------------|----------------------|-----------------------|-------3--------5-------|
E||--5--5--8--5----------|--7--7--5--7----------|--0--0--12--0----------|--1-------1--3-------3--|

[ Tab from: http://www.guitartabs.cc/tabs/m/muse/time_is_running_out_btab_ver_5.html ]
Verse 2
G||----------------------|----------------------|-----------------------|------------------------|
D||----------------------|----------------------|-----------------------|------------------------|
A||----------------------|----------------------|-----------------------|-------3--------5-------|
E||--5--5--8--5----------|--7--7--5--7----------|--0--0--12--0----------|--1-------1--3-------3--|


Chorus 2                                                                       
G||--------------------------|--------------------------|--------------------------|--------------------------|
D||--------------------------|--------------------------|--------------------------|--------------------------|
A||--------------------------|--------------------------|--------------------------|--------------------------|
E||--1--1--1--1--1--1--1--1--|--3--3--3--3--3--3--3--3--|--5--5--5--5--5--5--5--5--|--8--8--8--8--8--8--8--8--|

G||--------------------------|--------------------------|--------------------------|--------------------------|
D||--------------------------|--------------------------|--------------------------|--------------------------|
A||--------------------------|--------------------------|--------------------------|--------------------------|
E||--1--1--1--1--1--1--1--1--|--3--3--3--3--3--3--3--3--|--5--5--5--5--5--5--5--5--|--8--8--8--8--8--8--8--8--|


Bridge 2
G||--------------------------|------------------------------|
D||--0--0--2--2--3--3--5--5--|--7--7--9--9--10--10--12--12--|
A||--------------------------|------------------------------|
E||--------------------------|------------------------------|X3

G||--------------------------|--------------------------|
D||--2--2--2--2--2--2--2--2--|--2--2--2--2--2--2--2--2--|
A||--------------------------|--------------------------|
E||--------------------------|--------------------------|


Outro
G||----------------------|----------------------|------------------------|----------------------||
D||----------------------|----------------------|------------------------|----------------------||
A||----------------------|----------------------|------------------------|----------------------||
E||--5--5--8--5----------|--5--5--8--5----------|--5--5--8--5----3----4--|--5--5--8--5----------||


Song order:

Main riff  x 5
Pre-chorus x 2
Chorus 1   x 1
Bridge 1   x 1
Verse 2    x 3
Pre-chorus x 2
Chorus 2   x 1
Bridge 2   x 1    
Main riff  x 3
Pre-chorus x 2
Chorus 2   x 1
Bridge 2   x 1                
Outro      x 1