Muse - The Small Print Chords & Tabs

 

The Small Print Chords & Tabs

Muse Chords & Tabs

Version: 1 Type: Tab 0 ratings
1 star 2 stars 3 stars 4 stars 5 stars
comments

The Small Print Tab

   
Muse: Small Print

You can play this in D tuning but you dont need to, i will just put
the chords down, not the tab, coz really u should know how to play power
chords really?!?!

Main Riff

e---------------------------
b---------3---------------3-
g---------------------------
d-3-4-3-4---4-3-4-3-4-3-4---etc etc
a---------------------------
e---------------------------

Verse

e---------------------------------
b-3--5--7--8--10--12--14--12--11--
g---------------------------------
d-0--2--4--5---7---9--11---9---8--
a---------------------------------
e---------------------------------

Then the chords are as follows:

B5  F#5  D5  F#5  B5  F#5  D5  F#5  F#5
[ Tab from: http://www.guitartabs.cc/tabs/m/muse/the_small_print_tab.html ]
E5  F#5  B5  D5  F#5  E5  A5  D5  F#5  G5  G5

The order is as follows:

Main riff: 0:00 to 0:17
Verse: 0:17 to 0:41
Main Riff: 0:41 to 0:47
Chords: 0:47 to 1:20
Improvisation: 1:20 to 1:32 *****
Verse: 1:32 to 1:55
Chords: 1:56 to 2:28
Main Riff (+ improvisation over the top): 2:28 to 2:52
Chords: 2:52 to 3:24
Final chord: B5 to fade out

*****
For the improvisation I use the notes (not in this order of course):

e---------------8--11--13-
b--------8--11------------
g-8--10-------------------I use those notes and bend a few as well
d-------------------------
a-------------------------
e-------------------------

This is a great song, and I hope this sounds right, coz it does for
me, enjoy!

samprice14@hotmail.com
Comments