Muse - The Small Print Chords & Tabs

 

The Small Print Chords & Tabs

Muse Chords & Tabs

Version: 1 Type: Bass Tab 0 ratings
1 star 2 stars 3 stars 4 stars 5 stars
comments

The Small Print Bass Tab

Band : Muse
Song : The Small Print [Live]
Tabbed By : Michael Keating
e-mail: tubbyhunter@hotmail.com

Tuning : Drop D [GDAD]

Another one of the songs Muse have only played live, off the upcoming album.
Also known as "Action Faust". Check out RobbieMac2002's guitar tab if you wanna
cover it or something.

[Intro] x2

Guitar does its thing, you'll hear the bass come in with the drums.

G|------------------|-----------------|-----------------|------------------|
D|------------------|-----------------|-----------------|------------------|
A|------------------|-----------------|-----------------|------------------|
D|--9-9-9-9-9-9-9-9-|-4-4-4-4-4-4-4-4-|-0-0-0-0-0-0-0-0-|-4-4-4-4-4-4-4-4--|

[Verse 1] x2 "Take...take all you need..."

G|------------------|-----------------|-----------------|-----------------|
D|------------------|-----------------|-----------------|-----------------|
A|--2-2-2-2-2-2-2-2-|-2-2-2-2-4-4-4-4-|-5-5-5-5-5-5-5-5-|-7-7-7-7-9-9-9-9-|
D|------------------|-----------------|-----------------|-----------------|

G|------------------|-----------------|-----------------|-----------------|
D|------------------|-----------------|-----------------|-----------------|
A|------------------|-----------------|-----------------|-----------------|
D|--9-9-9-9-9-9-9-9-|-7-7-7-7-7-7-7-7-|-5-5-5-5-5-5-5-5-|-4-4-4-4-4-4-4-4-|

[Pre-Chorus] x2

G|------------------|-----------------|-----------------|-----------------|
D|------------------|-----------------|-----------------|-----------------|
A|------------------|-----------------|-----------------|-----------------|
D|--9-9-9-9-9-9-9-9-|-4-4-4-4-4-4-4-4-|-0-0-0-0-0-0-0-0-|-4-4-4-4-4-4-4-4-|

[Chorus]

Typical hard-to-write rhythm, listen to the track etc.

G|----------------|---------------|---------------|----------------|
D|----------------|---------------|---------------|----------------|
A|----------------|---------------|---------------|----------------|
D|--9-9-9--9--9-9-|-4-4-4--4--4-4-|-0-0-0--0--0-0-|-4-4-4--4--4-4--|

G|----------------|---------------|---------------|----------------|
D|----------------|---------------|---------------|----------------|
A|----------------|---------------|---------------|----------------|
D|--9-9-9--9--9-9-|-4-4-4--4--4-4-|-0-0-0--0--0-0-|-4-4-4--4--4-4--|

G|----------------|---------------|---------------|----------------|
D|----------------|---------------|---------------|----------------|
A|--7-7-7--7--7-7-|-9-9-9--9--9-9-|---------------|----------------|
D|----------------|---------------|-9-9-9--9--9-9-|-0-0-0--0--0-0--|

G|---------------|-----------------|---------------|----------------|
D|---------------|-----------------|---------------|----------------|
A|---------------|-----------------|-7-7-7--7--7-7-|-0-0-0--0--0-0--|
D|-4-4-4--4--4-4-|-4-4-4-4-4-4-4-4-|---------------|----------------|

G|---------------|---------------|---------------|----------------------------|
D|---------------|---------------|---------------|----------------------------|
A|-5-5-5--5--5-5-|---------------|---------------|-/10-10-10-10-10-10-10-10\--|
D|---------------|-4-4-4--4--4-4-|-5-5-5--5--5-5-|----------------------------|

[Verse 2] x3

G|------------------|-----------------|-----------------|-----------------|
D|------------------|-----------------|-----------------|-----------------|
A|--2-2-2-2-2-2-2-2-|-2-2-2-2-4-4-4-4-|-5-5-5-5-5-5-5-5-|-7-7-7-7-9-9-9-9-|
D|------------------|-----------------|-----------------|-----------------|
[ Tab from: http://www.guitartabs.cc/tabs/m/muse/the_small_print_btab.html ]
G|------------------|-----------------|-----------------|-----------------|
D|------------------|-----------------|-----------------|-----------------|
A|------------------|-----------------|-----------------|-----------------|
D|--9-9-9-9-9-9-9-9-|-7-7-7-7-7-7-7-7-|-5-5-5-5-5-5-5-5-|-4-4-4-4-4-4-4-4-|

[Pre Chorus] x2

G|------------------|-----------------|-----------------|------------------|
D|------------------|-----------------|-----------------|------------------|
A|------------------|-----------------|-----------------|------------------|
D|--9-9-9-9-9-9-9-9-|-4-4-4-4-4-4-4-4-|-0-0-0-0-0-0-0-0-|-4-4-4-4-4-4-4-4--|

[Chorus] 

G|----------------|---------------|---------------|----------------|
D|----------------|---------------|---------------|----------------|
A|----------------|---------------|---------------|----------------|
D|--9-9-9--9--9-9-|-4-4-4--4--4-4-|-0-0-0--0--0-0-|-4-4-4--4--4-4--|

G|----------------|---------------|---------------|----------------|
D|----------------|---------------|---------------|----------------|
A|----------------|---------------|---------------|----------------|
D|--9-9-9--9--9-9-|-4-4-4--4--4-4-|-0-0-0--0--0-0-|-4-4-4--4--4-4--|

G|----------------|---------------|---------------|----------------|
D|----------------|---------------|---------------|----------------|
A|--7-7-7--7--7-7-|-9-9-9--9--9-9-|---------------|----------------|
D|----------------|---------------|-9-9-9--9--9-9-|-0-0-0--0--0-0--|

G|---------------|-----------------|---------------|----------------|
D|---------------|-----------------|---------------|----------------|
A|---------------|-----------------|-7-7-7--7--7-7-|-0-0-0--0--0-0--|
D|-4-4-4--4--4-4-|-4-4-4-4-4-4-4-4-|---------------|----------------|

G|---------------|---------------|---------------|----------------------------|
D|---------------|---------------|---------------|----------------------------|
A|-5-5-5--5--5-5-|---------------|---------------|-/10-10-10-10-10-10-10-10\--|
D|---------------|-4-4-4--4--4-4-|-5-5-5--5--5-5-|----------------------------|

[Guitar Solo]

Nice rest while Matt does his guitar thing again.

[Pre Chorus] x2

G|------------------|-----------------|-----------------|------------------|
D|------------------|-----------------|-----------------|------------------|
A|------------------|-----------------|-----------------|------------------|
D|--9-9-9-9-9-9-9-9-|-4-4-4-4-4-4-4-4-|-0-0-0-0-0-0-0-0-|-4-4-4-4-4-4-4-4--|

[Chorus]

G|----------------|---------------|---------------|----------------|
D|----------------|---------------|---------------|----------------|
A|----------------|---------------|---------------|----------------|
D|--9-9-9--9--9-9-|-4-4-4--4--4-4-|-0-0-0--0--0-0-|-4-4-4--4--4-4--|

G|----------------|---------------|---------------|----------------|
D|----------------|---------------|---------------|----------------|
A|----------------|---------------|---------------|----------------|
D|--9-9-9--9--9-9-|-4-4-4--4--4-4-|-0-0-0--0--0-0-|-4-4-4--4--4-4--|

G|----------------|---------------|---------------|----------------|
D|----------------|---------------|---------------|----------------|
A|--7-7-7--7--7-7-|-9-9-9--9--9-9-|---------------|----------------|
D|----------------|---------------|-9-9-9--9--9-9-|-0-0-0--0--0-0--|

G|---------------|-----------------|---------------|----------------|
D|---------------|-----------------|---------------|----------------|
A|---------------|-----------------|-7-7-7--7--7-7-|-0-0-0--0--0-0--|
D|-4-4-4--4--4-4-|-4-4-4-4-4-4-4-4-|---------------|----------------|

G|---------------|---------------|---------------|----------------------------|
D|---------------|---------------|---------------|----------------------------|
A|-5-5-5--5--5-5-|---------------|---------------|-/10-10-10-10-10-10-10-10\--|
D|---------------|-4-4-4--4--4-4-|-5-5-5--5--5-5-|----------------------------|

G|---------------|
D|---------------|
A|---------------|
D|-9-------------|

Tada.
Comments