Muse - Supermassive Black Hole Chords & Tabs

 

Supermassive Black Hole Chords & Tabs

Muse Chords & Tabs

Version: 4 Type: Tab

Supermassive Black Hole Tab

   
ARTIST : Muse
SONG : Supermassive Black Hole
ALBUM : Black Holes And Revelations (availabe on July 3rd 2006)

This is my very first tab so if there are any advices or suggestions, let me know.

INTRO :

E||-------------------------------------------------|
A||-------------------------------------------------|
D||-------------------------------------------------|
G||-------------------------------------------------|
B||-----10b----------10---------10b----------10-----|
E||--0-------0--0-0-----0-0--0-------0--0-0-----0-0-|


E||-------------------------------------------------|
A||-------------------------------------------------|
D||-------------------------------------------------|
G||-------------------------------------------------|
B||-----10b----------10---------10b----------10-12--|
E||--0-------0--0-0-----0-0--0-------0--0-0---------|


E||--------------------------------------------------|
A||--------------------------------------------------|
D||--------------------------------------------------|
G||--------------------------------------------------|
B||-12b-12p-10---------10-----5-5-5-----10-----7-7-5-|
E||------------12--0-0----0-0-3-3-3-0-0----0-0-5-5-3-|


E||----------------------------------------------------|
A||----------------------------------------------------|
D||----------------------------------------------------|
G||----------------------------------------------------|
B||-----10-----5-5-5-----10-----7-7-9-----10-----5-5-5-|
E||-0-0----0-0-3-3-3-0-0----0-0-5-5-7-0-0----0-0-3-3-3-|

[ Tab from: http://www.guitartabs.cc/tabs/m/muse/supermassive_black_hole_tab_ver_4.html ]
E||----------------------------------------------------------|
A||----------------------------------------------------------|
D||----------------------------------------------------------|
G||----------------------------------------------------------|
B||-----10-----7-7-5-----10-----5-5-5-----10---12b-12p-10----|
E||-0-0----0-0-5-5-3-0-0----0-0-3-3-3-0-0----0------------12-|


VERSE :

E||-----------------------------------------------------------|
A||-----------------------------------------------------------|
D||-----------------------------------------------------------|
G||-----------------------------------------------------------|
B||-----10---------------10-----7-7-5-----10---------------10-|
E||-0-0----0-0-3-3-3-0-0----0-0-5-5-3-0-0----0-0-3-3-3-0-0----|


E||---------------------------------------------------|
A||---------------------------------------------------|
D||---------------------------------------------------|
G||---------------------------------------------------|
B||-----7-7-9-----10---------------10---12b-12p-10----|
E||-0-0-5-5-7-0-0----0-0-3-3-3-0-0----0------------12-|


CHORUS(x4) :

E||------------------------------------------------------------|
A||------------------------------------------------------------|
D||------------------------------------------------------------|
G||------------------------------------------------------------|
B||-----12-----12-12-11-----10-----7-7-5-----14----14-13-12-10-|
E||-0-0----0-0----------0-0----0-0-5-5-3-0-0-----0-------------|


E||-----------------|
A||-----------------|
D||-----------------|
G||-----------------|
B||-----5-5-7-7-7-9-|
E||-0-0-3-3-5-5-5-7-|


I couldn't really figure out the solo cuz' Matthew Bellamy uses an effect wich makes it 
difficult to translate it in a tab.
But I guess with my first tab I'm also one of the first to post a tab of Muse's new 
: Supermassive Black Hole

Cheers.