Muse - Sunburn Live Chords & Tabs

 

Sunburn Live Chords & Tabs

Muse Chords & Tabs

Version: 1 Type: Tab 0 ratings
1 star 2 stars 3 stars 4 stars 5 stars
comments

Sunburn Live Tab

Song: Sunburn (Live Version)
Artist: Muse

This is a TAB of the live version of Sunburn.  I have tabbed this one 
because it has no piano and more guitar.  It is tabbed from a B-side on the 
Sunburn single.



Intro/verse (play 12 times)
|---7-----7---7-----7-----7---7---|---8-----8---8-----7-----7---7---|
|-----8-----8---8-----8-----8---8-|-----8-----8---8-----8-----8---8-|
|-------9---------------9---------|-------9---------------9---------|
|-9---------------7---------------|10---------------7---------------|
|---------------------------------|---------------------------------|
|---------------------------------|---------------------------------|


Chorus (play twice)
|-5--5-----5-|-7--7-----7-|-5--5-----5-|-7--7-----7-|
|-5--5-----5-|-8--8-----8-|-5--5-----5-|-8--8-----8-|
|-5--5-----5-|-9--9-----9-|-5--5-----5-|-9--9-----9-|
|-7--7-----7-|-9--9--x--9-|-7--7-----7-|-9--9--x--9-|
|-7--7--x--7-|-7--7--x--7-|-7--7--x--7-|-7--7--x--7-|
|-5--5--x--5-|------------|-5--5--x--5-|------------|


Verse 2 (play 6 times)
|-12-----------------------------------------|
|----12-------12--------15-12-------12-------|
|-------12-------12-----------12-------12----|
|-14-------14-------14-----------14-------14-|
|-----------------------12-------------------|
|--------------------------------------------|

					 |First time only
|--8--------8------7------------7/12-|
|----8--------8------10-----10--7/12-|
|------9--------9-------9------------|
|-10-----10--------7------7----------|
|------------------------------------|
|------------------------------------|

Repeat Chorus

Solo (repetively pick each note)
|---------------------------------------------|
|-/5-/5-/5-/5-/5-/5/6/7/8/9/10/11/12/13/14/15-|
|---------------------------------------------|
|---------------------------------------------|
|---------------------------------------------|
|---------------------------------------------|
[ Tab from: http://www.guitartabs.cc/tabs/m/muse/sunburn_live_tab.html ]
Solo continued (play twice)			|second time only
|-9/12-9/12-9/12-/15-14-14-9/12-11------------|
|----------------------------------9/13-12\1--|
|---------------------------------------------|
|---------------------------------------------|
|---------------------------------------------|
|---------------------------------------------|

Repeat Chorus

Interlude (4 times)
|-------12--------------12-----|-------12--------------12-----|
|---13------13------13----13---|---12------12------12----12---|
|-12--12--12--12--12--12----12-|-12--12--12--12--12--12----12-|
|------------------------------|------------------------------|
|------------------------------|------------------------------|
|------------------------------|------------------------------|

Outro
|--12----12----12----12----12----12----12----12----11----11---------|
|----11----11----11----11----11----11----11----11----11----11-------|
|-9-----9-----9-----9-----9-----9-----9-----9-----9-----9-----9-----|
|-------------------------------------------------------------------|
|-------------------------------------------------------------------|
|-------------------------------------------------------------------|


|-13----12----11----12----13----12----11----12----13----12----11----|
|---11----11----11----11----11----11----11----11----11----11----11--|
|------9-----9-----9-----9-----9-----9-----9-----9-----9-----9-----9|
|-------------------------------------------------------------------|
|-------------------------------------------------------------------|
|-------------------------------------------------------------------|


|-...-21----21----21----21----21\1p0-|
|-...---20----20----20----20---------|
|-...-----18----18----18----18-------|
|-...--------------------------------|
|-...--------------------------------|
|-...--------------------------------|

For the last bit, just work your way up to the top fret in the 12, 11, 9 
chord pattern.  Sorry to be vague about it, but you'll figure it out.
Comments