Muse - Sing For Absolution Chords & Tabs

 

Sing For Absolution Chords & Tabs

Muse Chords & Tabs

Version: 3 Type: Bass Tab 0 ratings
1 star 2 stars 3 stars 4 stars 5 stars
comments

Sing For Absolution Bass Tab

   
VERSE
G|----------------------------------------------------------------|
D|----------------------------------------------------------------|
A|55-5-5-555-5-5-5----------------77-7-7-777-7-7-7----------------|
E|----------------66-6-6-666-6-6-6----------------55-5-5-555-5-585|

G|----------------------------------------------------------------|
D|----------------------------------------------------------------|
A|55-5-5-555-5-5-5----------------77-7-7-777-7-7-7----------------|
E|----------------66-6-6-666-6-6-6----------------55-5-5-555-5-585|

G|------------------------------------------------|
D|------------------------------------------------|
A|55-5-5-555-5-5-5----------------77-7-7-777-7-7-7|
E|----------------66-6-6-666-6-6-6----------------|

**CHORUS**
G|----------------------------------------------------------------|
D|----------------------------------------------------------------|
A|------------------------------6-8-101010101010101010101010101088|
E|55-5-5-555-5-55788888888888888----------------------------------|

G|--------------------------------------------------|
D|--------------------------------------------------|
A|--------------6-8-10101010101010101010101010101010|
E|88888888888888------------------------------------|

VERSE
G|----------------------------------------------------------------|
D|----------------------------------------------------------------|
A|55-5-5-555-5-5-5----------------77-7-7-777-7-7-7----------------|
E|----------------66-6-6-666-6-6-6----------------55-5-5-555-5-585|

G|----------------------------------------------------------------|
D|----------------------------------------------------------------|
A|55-5-5-555-5-5-5----------------77-7-7-777-7-7-7----------------|
E|----------------66-6-6-666-6-6-6----------------55-5-5-555-5-585|
[ Tab from: http://www.guitartabs.cc/tabs/m/muse/sing_for_absolution_btab_ver_3.html ]
G|------------------------------------------------|
D|------------------------------------------------|
A|55-5-5-555-5-5-5----------------77-7-7-777-7-7-7|
E|----------------66-6-6-666-6-6-6----------------|

**CHORUS**
G|----------------------------------------------------------------|
D|----------------------------------------------------------------|
A|------------------------------6-8-101010101010101010101010101088|
E|55-5-5-555-5-55788888888888888----------------------------------|

G|--------------------------------------------------|
D|--------------------------------------------------|
A|--------------6-8-10101010101010101010101010101010|
E|88888888888888------------------------------------|

VERSE
*bob some distortion on*
G|------------------------------------------------|
D|------------------------------------------------|
A|5555555555555555----------------7777777777777777|
E|----------------6666666666666666----------------|

G|----------------|
D|----------------|
A|----------------|
E|5555555555555577|

**CHORUS**
G|------------------------------------------------|
D|------------------------------------------------|
A|--------------6-8-101010101010101010101010101088|
E|88888888888888----------------------------------|

G|--------------------------------------------------|
D|--------------------------------------------------|
A|--------------6-8-10101010101010101010101010101010|
E|88888888888888------------------------------------|

VERSE
*bob some distortion on again*
G|----------------------------------------------------------------|
D|----------------------------------------------------------------|
A|5555555555555555----------------7777777777777777----------------|
E|----------------6666666666666666----------------5555555555555555|

OUTRO
*no distortion*
G|---------------------------------|
D|---------------------------------|
A|55-5-5-555-5-5-555-5-5-555-5-5-55|
E|---------------------------------|

Terrific song, and yet one of the more simple Muse songs. Enjoy.
Comments