Muse - Sing For Absolution Chords & Tabs

 

Sing For Absolution Chords & Tabs

Muse Chords & Tabs

Version: 2 Type: Bass Tab 0 ratings
1 star 2 stars 3 stars 4 stars 5 stars
comments

Sing For Absolution Bass Tab

Title: Sing For Absolution
Artist: Muse
Album: Absolution

Instrument: 4 String Bass

Tabbed by: James Richard (The_Jamester_123@hotmail.com)


Notes:
This tab was made on 
Taborama Tabber... yeah I'm allmsot Positive its perfectly right
Please E-mail me you'r comments.

Intro
G |----------------------------------------------------||
D |-----------------222-2-2-222-2-2--------------------||
A |-111-1-1-111-1-1-----------------000-0-0-000-0-0030-||
E |----------------------------------------------------||



Verse
[ Tab from: http://www.guitartabs.cc/tabs/m/muse/sing_for_absolution_btab_ver_2.html ]
G |--------------------------------------------------------------------||
D |-000-0-0-000-0-0-----------------222-2-2-222-2-2--------------------||
A |-----------------111-1-1-111-1-1-----------------000-0-0-000-0-0030-||
E |--------------------------------------------------------------------||
Chorus
G |-----------------000000000000------||
D |-2222222222223344------------4433--||
A |-----------------------------------||
E |-----------------------------------||

Order
Intro x1
Verse x2
Chorus x2
Verse x3
Chorus x2
Verse x1 (Solo)
Chorus x1
Verse x1 (Solo end)
Verse x1
Comments