Muse - Sing For Absolution Chords & Tabs

 

Sing For Absolution Chords & Tabs

Muse Chords & Tabs

Version: 1 Type: Bass Tab 0 ratings
1 star 2 stars 3 stars 4 stars 5 stars
comments

Sing For Absolution Bass Tab

Muse-Sing For Absolution (Bass)
Any comments, questions or queries then mail me at ruled_by_secrecy_6@hotmail.com
I haven't put the solo part in cos i'm still not sure what it is, apart from that enjoy!

Verse
G|------------------------------------------------------------|
D|------------------------------------------------------------|
A|-5-5--5--5--5-5-5--5--5--5----------------------------------|
E|---------------------------6-6--6--6--6-6-6--6--6--6--------|

G|------------------------------------------------------------|
D|------------------------------------------------------------|
A|-7-7--7--7--7-7-7--7--7--7----------------------------------|
E|---------------------------5-5--5--5--5-5-5--5--5-----------|

G|------------------------------------------------------------|
D|------------------------------------------------------------|
A|---4---5-5--5--5--5-5-5--5--5--5----------------------------|
E|-5---5---------------------------6-6--6--6--6-6-6--6--6--6--|
[ Tab from: http://www.guitartabs.cc/tabs/m/muse/sing_for_absolution_btab.html ]
G|------------------------------------------------------------|
D|------------------------------------------------------------|
A|-7-7--7--7--7-7-7--7--7--7----------------------------------|
E|---------------------------5-5--5--5--5-5-5--5--5--5--------|

G|------------------------------------------------------------|
D|------------------------------------------------------------|
A|-5-5--5--5--5-5-5--5--5--5----------------------------------|
E|---------------------------6-6--6--6--6-6-6--6--6--6--------|

G|------------------------------------------------------------|
D|------------------------------------------------------------|
A|-7-7--7--7--7-7-7--7--7--7----------------------------------|
E|---------------------------5-5--5--5--5-5-5--5--------------|

Chorus
G|-----------------------------------------------------------------------------|
D|-----------------------------------------------------------------------------|
A|-------------------------------7-7-9-9-10-10-10-10-10-10-10-10-10-10-10-10---|
E|-5-5-7-8-8-8-8-8-8-8-8-8-8-8-8-----------------------------------------------|

G|-----------------------------------------------------------------------------|
D|-----------------------------------------------------------------------------|
A|-8-8-7-7---------------------------------------------------------------------|
E|---------8-8-8-8-8-8-8-8-8-8-8-8-6-6-5-5-3-3-3-3-3-3-3-3-3-3-3-3-3-3-3-3-----|
Comments