Muse - Showbiz Chords & Tabs

 

Showbiz Chords & Tabs

Muse Chords & Tabs

Version: 2 Type: Tab 0 ratings
1 star 2 stars 3 stars 4 stars 5 stars
comments

Showbiz Tab

song:showbiz
artist:muse
album:showbiz
tuning:stndard (EADGBE)
george bush:idiot

hey, hey, the other guy who put showbiz on here got it wrong alot

it is a long song but its not complicated at all

so here goes:

play this very lightly

---------------------------------
---------------------------------
---------------------------------
-4-4-4-4-4-4-4-4-4-4-4-4-4-4-4-4- X2
---------------------------------
---------------------------------

when he says forcing our...

you play

---------------------------------
---------------------------------
---------------------------------
-4-4-4-4-4-4-4-4-4-4-4-4-4-4-4-4- 
-5-5-5-5-5-5-5-5-5-5-5-5-5-5-5-5-
---------------------------------

when he says forcing our... the second time you play:


---------------------------------
---------------------------------
---------------------------------
-4-4-4-4-4-4-4-4-4-4-4-4-4-4-4-4-
-5-5-5-5-5-5-5-5-5-5-5-5-5-5-5-5-
-7-7-7-7-7-7-7-7-7-7-7-7-7-7-7-7-

when he says pushing us... play:

---------------------------------
---------------------------------
---------------------------------
-4-4-4-4-4-4-4-4-4-4-4-4-4-4-4-4-
-5-5-5-5-5-5-5-5-5-5-5-5-5-5-5-5-
-5-5-5-5-5-5-5-5-5-5-5-5-5-5-5-5-

when he says pushig us... again, you go back to:
[ Tab from: http://www.guitartabs.cc/tabs/m/muse/showbiz_tab_ver_2.html ]
---------------------------------
---------------------------------
---------------------------------
-4-4-4-4-4-4-4-4-4-4-4-4-4-4-4-4-
-5-5-5-5-5-5-5-5-5-5-5-5-5-5-5-5-
-7-7-7-7-7-7-7-7-7-7-7-7-7-7-7-7-

the chorus is still played very lightly

here it is:

--------------------------
-------------------------- play the
-------7-----6-----4------ whole
-4-----7-X16-6-X16-4-X16-- chorus 
-4-X16-5-----4-----2------ twice
-2------------------------

at this point you start playing all the notes quite hard

then there is a short solo:

--------------------------------
-7-9-10-12---10-9-7-9-10-9-7---- you play
-------------------------------- this twice
--------------------------------
--------------------------------
--------------------------------

play the solo twice through the verse

but on the last bar play:

-------------------
-7-9-10-12-10-14---
-------------------
-------------------
-------------------
-------------------

here is the long solo:

-------------------------------------------------19----21--
-14----14-15-17-18-19----19-21-19-21----19-21-22----22-----
-----------------------------------------------------------
-----------------------------------------------------------
-----------------------------------------------------------
-----------------------------------------------------------

then slam out the chorus over and over again


end on:
------
------
------
-4----
-4----
-2----

thanx for reading my tab

its completely by ear so i hope its okay im only 12



Comments