Muse - Screenager Chords & Tabs

 

Screenager Chords & Tabs

Muse Chords & Tabs

Version: 1 Type: Bass Tab 0 ratings
1 star 2 stars 3 stars 4 stars 5 stars
comments

Screenager Bass Tab

Song - Screenager
Artist - Muse
Tabber - Zeidrich

Intro/Verse:

G|-----------      -------------    ----------|
D|-----------      -------------    ----------|
A|----------- x13  -------5--5-- x1 ----------| x2
E|-3----5-6--      -5---5-------    -3----5-6-|

Chorus:

G|------------------------------------|
D|------------------------------------|
A|-6-----6-----5-5---3-3---2-2---0-0--|
E|------------------------------------|

G|------------------------------------------------------------------|
D|------------------------------------------------------------------|
A|-5-5-5-5-5-5-5-5-6-6-6-6-6-6-6-6-7-7-7-7-7-7-7-7-7-7-7-7-7-7-7-7--| x3
E|------------------------------------------------------------------|

G|------------------------------------------------------------------|
D|------------------------------------------------------------------|
A|-5-5-5-5-5-5-5-5-6-6-6-6-6-6-6-6-7-7-7-7-7-7-7-7-6-6-6-6-5---5----|
E|------------------------------------------------------------------|

Back into verse:

[ Tab from: http://www.guitartabs.cc/tabs/m/muse/screenager_btab.html ]
G|-----------      -------------    ----------|
D|-----------      -------------    ----------|
A|----------- x9   -------5--5-- x1 ----------| x2
E|-3----5-6--      -5---5-------    -3----5-6-|

Chorus:

G|------------------------------------|
D|------------------------------------|
A|-6-----6-----5-5---3-3---2-2---0-0--|
E|------------------------------------|

G|------------------------------------------------------------------|
D|------------------------------------------------------------------|
A|-5-5-5-5-5-5-5-5-6-6-6-6-6-6-6-6-7-7-7-7-7-7-7-7-7-7-7-7-7-7-7-7--| x3
E|------------------------------------------------------------------|

G|------------------------------------------------------------------|
D|------------------------------------------------------------------|
A|-5-5-5-5-5-5-5-5-6-6-6-6-6-6-6-6-7-7-7-7-7-7-7-7-6-6-6-6-5---5----|
E|------------------------------------------------------------------|

Outro:

G|-----------      -------------    ----|
D|-----------      -------------    ----|
A|----------- x3   -------5--5-- x1 ----|
E|-3----5-6--      -5---5-------    -3--|
Comments