Muse - Ruled By Secrecy Chords & Tabs

 

Ruled By Secrecy Chords & Tabs

Muse Chords & Tabs

Version: 1 Type: Tab 0 ratings
1 star 2 stars 3 stars 4 stars 5 stars
comments

Ruled By Secrecy Tab

   
I know that Matt is playing the piano but I didn't feel like doing chords, so if you
want the chords, then convert the tabs...so yeah please leave comments and ratings.
No one else has made this tab so there's no possibility I used part of someone else's.

Muse
Ruled By Secrecy
Absolution

Tuning- Standard (E-B-G-D-A-e)

Order
Intro
Verse
Chorus
Intro Part 2 (2x)
Verse
Chorus
Solo
Chorus
Intro Part 2 (2x)

INTRO

Part 1 (4x)
E|-----------------|
B|13---------------|
G|---13----------13|
D|------15-14-15---|
A|-----------------|
E|-----------------|

Part 2 (4x)
Guitar 1
E|-----------------|
B|13---------------|
G|---13----------13|
D|------15-14-15---|
A|-----------------|
E|-----------------|

Guitar 2
E|-----------|
B|-----------|
G|-----------|
D|----6-5-6--|
A|--7-------7|
E|7----------|



VERSE

Part 1(4x)
Guitar 1
E|-----------------|
B|13---------------|
G|---13----------13|
D|------15-14-15---|
A|-----------------|
E|-----------------|

Guitar 2
E|-----------|
B|-----------|
G|-----------|
D|----6-5-6--|
A|--7-------7|
E|7----------|

Part 2(4x)
Guitar 1
E|-----------------|
B|12---------------|
G|---12----------12|
D|------14-13-14---|
A|-----------------|
E|-----------------|

Guitar 2
E|-----------|
B|-----------|
G|-----------|
D|----5-4-5--|
A|--6-------6|
E|6----------|

Part 3 (4x)
Guitar 1
E|-----------------|
B|11---------------|
G|---11----------11|
D|------13-12-13---|
A|-----------------|
E|-----------------|

Guitar 2
E|-----------|
B|-----------|
G|-----------|
D|----4-3-4--|
A|--5-------5|
E|5----------|

Part 4 (4x) *Same as Verse Part 2*
Guitar 1
E|-----------------|
B|12---------------|
G|---12----------12|
D|------14-13-14---|
A|-----------------|
E|-----------------|

Guitar 2
E|-----------|
B|-----------|
G|-----------|
D|----5-4-5--|
A|--6-------6|
E|6----------|



CHORUS132 142 154 162 152 144 134 142 152 164 154 138

Part 1 (2x)
Guitar 1
E|-----------------|
B|13---------------|
G|---13----------13|
D|------15-14-15---|
A|-----------------|
E|-----------------|

Guitar 2
E|-----------|
B|-----------|
G|-----------|
D|----6-5-6--|
A|--7-------7|
E|7----------|

Part 2 (2x)
Guitar 1
E|-----------------|
B|14---------------|
G|---14----------14|
D|------16-15-16---|
A|-----------------|
E|-----------------|

Guitar 2
E|-----------|
B|-----------|
G|-----------|
D|----7-6-7--|
A|--8-------8|
E|8----------|
[ Tab from: http://www.guitartabs.cc/tabs/m/muse/ruled_by_secrecy_tab.html ]
Part 3 (4x)
Guitar 1
E|-----------------|
B|15---------------|
G|---15----------15|
D|------17-16-17---|
A|-----------------|
E|-----------------|

Guitar 2
E|-----------|
B|-----------|
G|-----------|
D|----8-7-8--|
A|--9-------9|
E|9----------|

Part 4 (2x)
Guitar 1
E|-----------------|
B|16---------------|
G|---16----------15|
D|------18-17-18---|
A|-----------------|
E|-----------------|

Guitar 2
E|--------------|
B|--------------|
G|--------------|
D|------9-8-9---|
A|---10-------10|
E|10------------|


Part 5 (2x)
Guitar 1
E|-----------------|
B|15---------------|
G|---15----------15|
D|------17-16-17---|
A|-----------------|
E|-----------------|

Guitar 2
E|-----------|
B|-----------|
G|-----------|
D|----8-7-8--|
A|--9-------9|
E|9----------|

Part 6 (4x)
Guitar 1
E|-----------------|
B|14---------------|
G|---14----------14|
D|------16-15-16---|
A|-----------------|
E|-----------------|

Guitar 2
E|-----------|
B|-----------|
G|-----------|
D|----7-6-7--|
A|--8-------8|
E|8----------|

Part 7 (4x)
Guitar 1
E|-----------------|
B|13---------------|
G|---13----------13|
D|------15-14-15---|
A|-----------------|
E|-----------------|

Guitar 2
E|-----------|
B|-----------|
G|-----------|
D|----6-5-6--|
A|--7-------7|
E|7----------|

Part 8 (2x)
Guitar 1
E|-----------------|
B|14---------------|
G|---14----------14|
D|------16-15-16---|
A|-----------------|
E|-----------------|

Guitar 2
E|-----------|
B|-----------|
G|-----------|
D|----7-6-7--|
A|--8-------8|
E|8----------|

Part 9 (2x)
Guitar 1
E|-----------------|
B|15---------------|
G|---15----------15|
D|------17-16-17---|
A|-----------------|
E|-----------------|

Guitar 2
E|-----------|
B|-----------|
G|-----------|
D|----8-7-8--|
A|--9-------9|
E|9----------|

Part 10 (4x)
Guitar 1
E|-----------------|
B|16---------------|
G|---16----------15|
D|------18-17-18---|
A|-----------------|
E|-----------------|

Guitar 2
E|--------------|
B|--------------|
G|--------------|
D|------9-8-9---|
A|---10-------10|
E|10------------|

Part 11 (4x)
Guitar 1
E|-----------------|
B|15---------------|
G|---15----------15|
D|------17-16-17---|
A|-----------------|
E|-----------------|

Guitar 2
E|-----------|
B|-----------|
G|-----------|
D|----8-7-8--|
A|--9-------9|
E|9----------|



SOLO

Guitar 1
E|
B|
G|
D|
A|
E|....oh screw this ill finish it later


tell me what u think (C) milhouse87@optonline.net
Comments