Muse - Ruled By Secrecy Chords & Tabs

 

Ruled By Secrecy Chords & Tabs

Muse Chords & Tabs

Version: 1 Type: Bass Tab 0 ratings
1 star 2 stars 3 stars 4 stars 5 stars
comments

Ruled By Secrecy Bass Tab

Song - Ruled By Secrecy
Artist - Muse
Tabber - Zeidrich

Verse:

G|---------------------|
D|---------------------|
A|-8----7----6----3----|  x2
E|---------------------|

Chorus:

G|------------------------------------------------------|
D|------------------------------------------------------|
A|-4----5----6----7----8----7--6----11---5----8----8----|
E|------------------------------------------------------|
[ Tab from: http://www.guitartabs.cc/tabs/m/muse/ruled_by_secrecy_btab.html ]
2nd verse is just same as 1st. On 2nd chorus miss out last two F notes
(8th fret) Then onto Bridge bit:

G|-----------------------------------------|
D|-----------------------------------------|
A|-8----8----7----7----6----6----3----3----|  x2
E|-----------------------------------------|

3rd Chorus:

G|---------------------------------------------------|
D|---------------------------------------------------|
A|-4--4--5--5--6--6--7--7--8--8--7--6--11--11--5--5--|
E|---------------------------------------------------|

Just repeat F (8th fret) as many times as necessary to finish.
Comments