Muse - Recess Chords & Tabs

 

Recess Chords & Tabs

Muse Chords & Tabs

Version: 1 Type: Bass Tab

Recess Bass Tab

   
-------------------------------------------------------------------------------
			     Recess - Muse
-------------------------------------------------------------------------------

Tabbed By : Not me, I didn't tab this song, I found it on the net.
e-mail: N/A

Tuning:  Standard

Intro just guitar

Verse 1
G|-------------------------------|-------------------------------|
D|-------------------------------|-------------------------------|
A|0-------2-2-----2--------------|2-------0-0-----0--------------| x4
E|----0-0-----0------------------|----0-0-----0------------------|

Chorus 1 
G|---------------------------------|---------------------------------|
D|---------------------------------|---------------------------------|
A|0-------2-2-----2-2-----2-2-----2|2-------0-0-----0-0-----0-0-----0| x4
E|--0-0-------0-0-----0-0-----0-0--|----0-0-----0-0-----0-0-----0-0--|

G|-------------------------------|--------------------------------|
D|-------------------------------|--------------------------------|
A|5-5-----5-5-----5-5-----5-5----|--------------------------------|
E|----5-5-----5-5-----5-5-----5-5|-4-4-0-0-4-4-0-0-4-4-0-0-4-4-0-0|

G|--------------------------------|--------------------------------|
D|--------------------------------|--------------------------------|
A|--------------------------------|--------------------------------|
E|-5-5-5-5-5-5-5-5-5-5-5-5-5-5-5-5|-5-5-5-5-5-5-5-5-5-5-5-5-5-5-5-5|

Verse 2
G|-------------------------------|-------------------------------|
D|-------------------------------|-------------------------------|
A|0---2-2-2-2-2---2--------------|2-------0-0-----0--------------|
E|-------------------------------|----0-0-----0-0----------------|

G|-------------------------------|-------------------------------|
D|-------------------------------|-------------------------------|
A|2-------2-2-----2--------------|2-------0-0-----0--------------| x5
E|----0-0-----0-0----------------|----0-0-----0-0----------------|
[ Tab from: http://www.guitartabs.cc/tabs/m/muse/recess_btab.html ]
Chorus 2 
G|-------------------------------|-------------------------------|
D|-------------------------------|-------------------------------|
A|0-----2-2-----2-2-----2-2-----2|2-----0-0-----0-0-----0-0-----0| x2
E|--0-0-----0-0-----0-0-----0-0--|--0-0-----0-0-----0-0-----0-0--|

G|-------------------------------|--------------------------------|
D|-------------------------------|--------------------------------|
A|5-5-----5-5-----5-5-----5-5----|--------------------------------|
E|----5-5-----5-5-----5-5-----5-5|-4-4-0-0-4-4-0-0-4-4-0-0-4-4-0-0|

G|--------------------------------|--------------------------------|
D|--------------------------------|--------------------------------|
A|--------------------------------|--------------------------------|
E|-5-5-5-5-5-5-5-5-5-5-5-5-5-5-5-5|-5-5-5-5-5-5-5-5-5-5-5-5-5-5-5-5|

Guitar solo
G|-------------------------------|-------------------------------|
D|-------------------------------|-------------------------------|
A|2-------2-2-----2--------------|2-------0-0-----0--------------| x4
E|----0-0-----0-0----------------|----0-0-----0-0----------------|

Rest

Chorus 3 
G|-------------------------------|-------------------------------|
D|-------------------------------|-------------------------------|
A|0-----2-2-----2-2-----2-2-----2|2-----0-0-----0-0-----0-0-----0| x4
E|--0-0-----0-0-----0-0-----0-0--|--0-0-----0-0-----0-0-----0-0--|

G|-------------------------------|--------------------------------|
D|-------------------------------|--------------------------------|
A|5-5-----5-5-----5-5-----5-5----|--------------------------------| x3
E|----5-5-----5-5-----5-5-----5-5|-4-4-0-0-4-4-0-0-4-4-0-0-4-4-0-0|

G|--------------------------------|--------------------------------|
D|--------------------------------|--------------------------------|
A|--------------------------------|--------------------------------|
E|-5-5-5-5-5-5-5-5-5-5-5-5-5-5-5-5|-5-5-5-5-5-5-5-5-5-5-5-5-5-5-5-5|

Outro
G|-------------------------------|
D|-------------------------------|
A|2-------2-2-----2--------------|
E|----0-0-----0-0----------------|