Muse - Plug In Baby Chords & Tabs

 

Plug In Baby Chords & Tabs

Muse Chords & Tabs

Version: 5 Type: Tab 0 ratings
1 star 2 stars 3 stars 4 stars 5 stars
comments

Plug In Baby Tab

E:-------------------0-2-3-2-0-----------------0----0-2-2-3
B:--0-2---0-2-3-0-2-3-----------3-2-0-2-3-0-2-3--2-3-------
G:3-----3--------------------------------------------------
D:---------------------------------------------------------
A:---------------------------------------------------------
E:---------------------------------------------------------
[ Tab from: http://www.guitartabs.cc/tabs/m/muse/plug_in_baby_tab_ver_5.html ]
E:-2-1-2-1-2-----------2-4-5-4-2-1-2------------------------
B:-----------3-------3---------------3-2-3---0-2---0-2-3-0-2
G:-------------2---2-----------------------3-----3----------
D:---------------3------------------------------------------
A:----------------------------------------------------------
E:----------------------------------------------------------

E:---0-2-3-2-0-------
B:-3-----------3-2-0-
G:-------------------
D:-------------------
A:-------------------
E:-------------------
Comments