Muse - Plug In Baby Chords & Tabs

 

Plug In Baby Chords & Tabs

Muse Chords & Tabs

Version: 3 Type: Tab 0 ratings
1 star 2 stars 3 stars 4 stars 5 stars
comments

Plug In Baby Tab

   
Maybe it's just me but I get bored learning songs after the intro, and so here's another 
for you

Oh yeah, standard tuning for this one (E, A, D, G, B, E)
[ Tab from: http://www.guitartabs.cc/tabs/m/muse/plug_in_baby_tab_ver_3.html ]
---------------------------------------------------------------------|
-----------------------7h8p7-----------------------------7h8p7-6-7-6-|
-----6-----6-7---6-7-9-------9-7-6-----6-----6-7---6-7-9-------------|
-8-9---8-9-----9-------------------8-9---8-9-----9-------------------|
---------------------------------------------------------------------|
---------------------------------------------------------------------|

-------------------------------|
-7-----------7-9^--7---7-------|
---7-------7---------9---7-6-7-|
-----7---7---------------------|
-------9-----------------------|
-------------------------------|

-------------------------------------|
-----------------------7h8p7---------|
-----6-----6-7---6-7-9-------9-7-6---|
-8-9---8-9-----9-------------------9-|
-------------------------------------|
-------------------------------------|

(submitted by Andrew Biles)
Comments