Muse - Plug In Baby Main Riff Chords & Tabs

 

Plug In Baby Main Riff Chords & Tabs

Muse Chords & Tabs

Version: 3 Type: Tab 0 ratings
1 star 2 stars 3 stars 4 stars 5 stars
comments

Plug In Baby Main Riff Tab

   
Muse - Plug In Baby (intro)

OK there are some fairly close versions but i think i am the first person to completely 
nail it on the head.  This is 100% accurate!!

                                       H P
e||---------------------------------------------------------------------------|
B||-----------------------------------7-8-7-----------------------------------|
G||--------6--------6--7-----6--7--9---------9--7--6-----6--7-----6--7--9--6--|
D||--8--9-----8--9--------9---------------------------9--------9--------------|
A||---------------------------------------------------------------------------|
E||---------------------------------------------------------------------------|
[ Tab from: http://www.guitartabs.cc/tabs/m/muse/plug_in_baby_main_riff_tab_ver_3.html ]
               H P                                    BU
e||-------------------------------------------------------------------------------|
B||--------7--7-8-7--6--7--6--7-----------------7--9--9(10)--9--7--6--7-----------|
G||--7--9------------------------7-----------7---------------------------7--6--7--|
D7|---------------------------------7-----7---------------------------------------|
A||------------------------------------9------------------------------------------|
E||-------------------------------------------------------------------------------|

Repeat the above riff and then the following piece leads into the verse.

                                       H P
e||------------------------------------------------------|
B||-----------------------------------7-8-7--------------|
G||--------6--------6--7-----6--7--9---------9--7--6-----|
D||--8--9-----8--9--------9---------------------------9--|
A||------------------------------------------------------|
E||------------------------------------------------------|


Any comments, suggestions (including accurate tabs for the verses and chorus) or 
questions please email me at d_squibb@hotmail.com
I may also be able to provide you with other tabs.  My speciality is Metallica!!

BigD
Comments