Muse - Plug In Baby Main Riff Chords & Tabs

 

Plug In Baby Main Riff Chords & Tabs

Muse Chords & Tabs

Version: 2 Type: Tab 0 ratings
1 star 2 stars 3 stars 4 stars 5 stars
comments

Plug In Baby Main Riff Tab

   
Artist: Muse
Title: Plug In Baby 
Tabbed by greg harrison - greg_7485@hotmail.com                                                                      
[ Tab from: http://www.guitartabs.cc/tabs/m/muse/plug_in_baby_main_riff_tab_ver_2.html ]
Intro
-|-------------------------------------------------------------------------|--
-|-----------------------7h8p7---------------------------7-7h8p7-----------|--
-|-----6-----6-7---6-7-9-------9-7-6---6-7---6-7-9-6-7-9---------9-10-11---|--
-|-8-9---8-9-----9-------------------9-----9-------------------------------|--
-|-------------------------------------------------------------------------|--
-|-------------------------------------------------------------------------|--
                                                                                                            
-|-------------------------------------------|--
-|-------------------------------------------|--
-|---------------13-13b---11-10-11-----------|--
-|--12-12-12-12--------------------12-11-12--|--
-|-------------------------------------------|--
-|-------------------------------------------|--
       
verse                                                                                                                     
I've exposed your lies, baby
                  D       F#  

The underneath is no big surprise
                 G

Now it's time for changing
         D            F#

And cleansing everything
              G
 
To forget your love
              D      

bridge
F# 
chorus
  My plug in baby
G              Bm

Crucifies my enemies 
F#          G

When I'm tired of giving
                   Bm

    wooohoohoo 
Bm             F#

  My plug in baby 
G              Bm

In unbroken virgin realities 
      F#              G

And tired of living
               D

any comments to greg_7485@hotmail.com






Comments