Muse - Plug In Baby Main Riff Chords & Tabs

 

Plug In Baby Main Riff Chords & Tabs

Muse Chords & Tabs

Version: 1 Type: Tab 0 ratings
1 star 2 stars 3 stars 4 stars 5 stars
comments

Plug In Baby Main Riff Tab

=============
    MUSE
=============

Plug In Baby – Main Riff

Here is the main riff in Plug In Baby used throughout the song.
It is played using standard tuning.
Listen to the track for the timing.

E -------------------------2-h3----------------------------------------
B ---------------3-----3-5------5-3-----------------5-----5-7-8-7-6-7--
G --3-4-6--3-4-6---4-6--------------6--4-6-7--4-6-7---6-7--------------
D ---------------------------------------------------------------------
A ---------------------------------------------------------------------
E ---------------------------------------------------------------------

[ Tab from: http://www.guitartabs.cc/tabs/m/muse/plug_in_baby_main_riff_tab.html ]
E ---------------------------------------------------------------------
B ------------7-9-10-9-7-6-7-------------------------------------------
G --7-7-----7----------------7-6-7-------------------------------------
D ------6-7------------------------------------------------------------
A ---------------------------------------------------------------------
E ---------------------------------------------------------------------

There, that sounds right to me.
Quite difficult at first, but easy once mastered and it sounds soooo
good.  Brilliant new single, lets hope the album is more of the same.

Colin

Any comments to matrix572@hotmail.com


Comments