Muse - Plug In Baby Chords & Tabs

 

Plug In Baby Chords & Tabs

Muse Chords & Tabs

Version: 6 Type: Bass Tab 0 ratings
1 star 2 stars 3 stars 4 stars 5 stars
comments

Plug In Baby Bass Tab

Muse - Plug In Baby
Bass tab by daz

drop D tuning

MAIN

G|----------------------------------------------------------|
D| -0----0---0----0--4-----4--4-----4---5----5--5----5------|
A|------0--------0--------4--------4--------5-------5-------|
D|-0-0-0----0-0-0---4--4-4---4--4-4----5-5-5---5-5-5--------| X3

CHORUS PART 1
G|-------------------------------------------------------------|
D|-------------------------------------------------------------|
A|----------------------------4-5-4-0-2-2-2-2-2-2-2-2-----0-0--|
D|-4444444444444-555555555555------------------------44444---4-|
[ Tab from: http://www.guitartabs.cc/tabs/m/muse/plug_in_baby_btab_ver_6.html ]
CHORUS PART 2
G|-----------------------------------------------|
D|-----------------------------------------------|
A|--------------4-5-4-0-2-2-2-2-2-2-2-2-----0-0--|
D|-555555555555------------------------44444---4-|   X2

CHORUS PART 3
G|---------------------------|
D|---------------------------|
A|-------------3-3-555555555-|
D|-55555555555---------------|

Then repeat


pretty much a summary of the other tabs, i prefer to use the drop D tab - its much 
to play, but the chorus was a bit out so this is my attempt!

the chorus part is realy cool! you hust have to play the notes realy fast and try to get 
timing right
Comments