Muse - Plug In Baby Chords & Tabs

 

Plug In Baby Chords & Tabs

Muse Chords & Tabs

Version: 5 Type: Bass Tab 0 ratings
1 star 2 stars 3 stars 4 stars 5 stars
comments

Plug In Baby Bass Tab

   
Band:MUSE
Song:PLUG IN BABY
Tuning E,A,D,G,

After guitar solo at start

Verse1
G|-------------------------------------|
D|----12----------12----12----------12-|
A|-------------12----------------12----|
E|-10----10-10-------10----10-10-------|

Verse2
G|---11--------11---11-------11-|
D|----------11-------------11---|
A|-9----9-9-------9----9-9------|
E|------------------------------|

Verse3
G|----12----------12----12----------12-|
D|-------------12----------------12----|
A|-10----10-10-------10----10-10-------|
E|-------------------------------------|

Bridge
G|-------------------------------|
D|-------------------------------|
A|-9-9-9-9-9-9-9-9-9-9-9-9-9-9-9-|
E|-------------------------------|
[ Tab from: http://www.guitartabs.cc/tabs/m/muse/plug_in_baby_btab_ver_5.html ]
Chorus 1
G|-----------------------------------------------------------------|
D|-----------------------------------------------------------------|
A|------------------------4-5-4-0-2-2-2-2-2-2-2-0-------------0----|
E|3-3-3-3-3-3-3-3-3-3-3-3-------------------------2-2-2-2-2-2---2--|

Chorus 2
G|-----------------------------------------------------------------|
D|--------------------------------------------------4-4---4-4-4----|
A|------------------------4-5-4-0-2-2-2-2-2-2-2-0------------------|
E|3-3-3-3-3-3-3-3-3-3-3-3-------------------------2-----2-------2--|

Chorus 3 (same as chorus 1)
G|-----------------------------------------------------------------|
D|-----------------------------------------------------------------|
A|------------------------4-5-4-0-2-2-2-2-2-2-2-0-------------0----|
E|3-3-3-3-3-3-3-3-3-3-3-3-------------------------2-2-2-2-2-2---2--|

Chorus 4
G|------------------------------------7-------7-------7------------|
D|----------------------------------7---7---7---7---7---7---7------|
A|------------------------4-5-4-0-5-------5-------5-------5---5-7--|
E|3-3-3-3-3-3-3-3-3-3-3-3------------------------------------------|


The order of the song is pretty easy to figure out, but remember that the end bit
of chorus4 is pretty much the same as verse 1, so don't play verse 1 straight after
the chorus
Comments