Muse - Plug In Baby Chords & Tabs

 

Plug In Baby Chords & Tabs

Muse Chords & Tabs

Version: 3 Type: Bass Tab 0 ratings
1 star 2 stars 3 stars 4 stars 5 stars
comments

Plug In Baby Bass Tab

   
------------------------------------------------------------
			     Plug in baby- Muse
------------------------------------------------------------

By:
thebassmaster (da_evil_fish@hotmail.com)

drop d tuning (dadg)

Okay i discovered this by accident while playing in drop d then i decided to work on it a bit more. enjoy.

Intro - after guitar solo

G|----------------------------------------------------------
D| -0----0---0----0--4-----4--4-----4---5----5--5----5-----
A|------0--------0--------4--------4--------5-------5------
D|-0-0-0----0-0-0---4--4-4---4--4-4----5-5-5---5-5-5--------

keep playing till "so forget your," then after:

bridge
[ Tab from: http://www.guitartabs.cc/tabs/m/muse/plug_in_baby_btab_ver_3.html ]
G|----------------------------
D| -----------------------------
A|-------------------------------
D|-4-4-4-4-4-4-4-4-4-4-4-4-4-4-4-4

chorus


G|----------------------------------------------
D| ----------------------------------------------
A|-----------------2-2-2-2-2-2-2-2---------------
D|-5-5-5-5-5-5-5-5----------------4-4-4-4-4-4-4-4

then the solo starts again but start from the beginning of the solo with this

G|--------------------------------------
D|-4----4--4----4---5----5--5----5-----
A|-----4-------4--------5-------5------
D|4-4-4---4-4-4----5-5-5---5-5-5--------

then back to the intro

thats basically the entire song. the order is roughly this

intro * lots
bridge
chorus *4
solo start

repeat

this is correct i think and sounds awesome when u get the timing right
Comments