Muse - Plug In Baby Chords & Tabs

 

Plug In Baby Chords & Tabs

Muse Chords & Tabs

Version: 2 Type: Bass Tab 0 ratings
1 star 2 stars 3 stars 4 stars 5 stars
comments

Plug In Baby Bass Tab

#----------------------------------PLEASE NOTE---------------------------------#
#This file is the author's own work and represents their interpretation of the #
#song. You may only use this file for private study, scholarship, or research. #
#------------------------------------------------------------------------------#


Song:Plug in baby
Aritist:Muse
Tabbed By:1Zell6(salcaia@tin.it)


                                INTRO and 1┬░VERSE

  G:---------------------------------------------------------------------------
  D:----------------------------4------4----4------4---5------5---5------5-----
  A:---5------5------5------5----------4-----------4----------5----------5------
  E:-0---000-5-----0---000-5---2---222-----2---222----3---333----3---333--------
                                                                                            
                                                    
                                     BRIDGE
[ Tab from: http://www.guitartabs.cc/tabs/m/muse/plug_in_baby_btab_ver_2.html ]
  G:----------------------------------------------------------------------------
  D:----------------------------------------------------------------------------
  A:----------------------------------------------------------------------------
  E:----2-2-2-2-2-2-2-2-2-2-2-2-2-2-2-2-----------------------------------------
                                                              
                                     CHORUS                                  
  G:----------------------------------------------------------------------------
  D:----5-------5---5------5----------------------------5-------5---5-------5---
  A:-----------5----------5--222222222222444444444444----------5-----------5----
  E:--3---3--3----3--3--3-----------------------------3---3--3----3---3--3------


  G:----------------------------------------------------------------------------
  D:------------------------5-------5---5-------5-------------------------5-----
  A:2222222222-2-------------------5-----------5--222222222244444444444---------
  E:-------------2-2--222-3---3--3----3---3--3--------------------------3---3--3
                      
                      
  G:----------------------------------------------------------------------------
  D:--5-------------------------------------------------------------------------
  A:-5--22222222222222222222----------------------------------------------------
  E:----------------------------------------------------------------------------
  
                                   NORMAL VERSE
  G:----------------------------------------------------------------------------
  D:---4------4----4------4----5------5-----------5-----------------------------
  A:---------4-----------4-----------5-----5-----5------------------------------                                   
  E:-2---222-----2---222-----3---333-----0---000--------------------------------

 

                                     BREAK   
  G:----------------------------------------------------------------------------
  D:----------------------------------------------------------------------------
  A:----------------------------------------------------------------------------
  E:--2-2-2-2-2-2-2-2-3-3-3-3-3-3-3-3-0-0-0-0-0-0-0-0---------------------------          


                                   
  
         Guitar intro 
         Intro and 1┬░Verse x 5
         Bridge x1 
         Chorus x1
         Normal Verse x4
         Bridge x1
         Chorus x1 
         Break x2
         Normal Verse   
Comments