Muse - Plug In Baby Chords & Tabs

 

Plug In Baby Chords & Tabs

Muse Chords & Tabs

Version: 1 Type: Bass Tab 0 ratings
1 star 2 stars 3 stars 4 stars 5 stars
comments

Plug In Baby Bass Tab

   
Artist - Muse	
Track - Plug In Baby
Album - ?
Tabber - Yuffie (sarahdoherty25@hotmail.com)

wow I'm so happy I tabbed this song! before its even released!
drop e to a d, mmkay?


guitar intro, join in at end

g---------------
d---------------
a---5-------4-5-
d-0---0-0-0-----

verse

g--------------------------------------------------------------
d---4-------4-5------4-------4-5----5-------4-5----5-------4-5-
a--------------------------------------------------------------
d-4---4-4-4--------4---4-4-4------5---5-5-5------5---5-5-5-----
[ Tab from: http://www.guitartabs.cc/tabs/m/muse/plug_in_baby_btab.html ]
g------------------------------
d------------------------------
a---5-------4-5----5-------4-5-
d-0---0-0-0------0---0-0-0-----

pre-chorus

g---------------------------------
d---------------------------------
a---------------------------------
d-4-4-4-4-4-4-4-4-4-4-4-4-4-4-4-4-

chorus (repeat to the beat. a lot)

g----------------
d-----5----------
a--------2-------
d-5----------4---

end of chorus

g---------
d---------
a---------
d-5---0---

there, thats it! I know there are bits wrong with it, 
but this is the basic tab. Also, it'd be nice if someone told me
if they're going to use my tab on their site. :)
If there are any muse fans reading this, I am tabbing Showbiz
and it'll be up on my site soon. If you want the url, ask me!
Happy playing!

Comments