Muse - Please Please Please Let Me Get What I Want Chords & Tabs

 

Please Please Please Let Me Get What I Want Chords & Tabs

Muse Chords & Tabs

Version: 1 Type: Tab 0 ratings
1 star 2 stars 3 stars 4 stars 5 stars
comments

Please Please Please Let Me Get What I Want Tab

   
Band: Muse
Song: Please, please, please let me get what I want
Album: N/A
Form: Guitar Tab & Chords

Intro (tab):

E--------------------------------------------|
B---11<10~~----------------------11~~--------|
G--------------------------------------------|
D--------------------------------------------|
A----------0-0-0-0-0-0-0-0-0-0-0-0-0-0-0-0---|
E--------------------------------------------|



Chords:

A    E           A       E
Good times for a change.

                  C#m              D                E     Esus4   E
See the look i had could make a good man turn bad.

   D             E          A      E      D
So please please please let me let me let me....

    D             E                F#m   E/G#   A   E/B
Let me get what I want this time.



Guitar 2:

       D              E

E--------------------------|
B--------------------------|
G-----4b6--4--2---4<2<1----|
D--------------------------|
A--------------------------|
E--------------------------|



Couplet 2:

A          E         A       E
Haven't had a dream in a long time.

 C#m              D          E     Esus4   E
See the life I've had could make a good man bad.

D                 E        A  E          D
So for once in my life let me get what I want.

D          E      F#m   E/G#  A  E/B
Lord knows it would be the first time.

D          E                             
Lord knows it would be the first time.



Solo final : (Couplet 2 instrumental)
[ Tab from: http://www.guitartabs.cc/tabs/m/muse/please_please_please_let_me_get_what_i_want_tab.html ]
   A     E             A         E      C#m      D    E   Esus4       E

E-------------------------------------------------------------------------|
B-----------2>3<2---------------------------------------------------------|
G--4b6---4---------4---2---4b6---4------4b6~~---6b7---6>7<6>7<6>7<6>7---9~|
D-------------------------------------------------------------------------|
A-------------------------------------------------------------------------|
E-------------------------------------------------------------------------|


D     E               A   E  D         E              F#m  E/G#  A  E/B

E-------------------------------------------------------------------------|
B-------------------------------------------------------------------------|
G--9--7--6>7<6>7<6--4---6b7--4--6~~-------4b6--4--2--4--4b6--4--2---------|
D-------------------------------------------------------------------------|
A-------------------------------------------------------------------------|
E-------------------------------------------------------------------------|


    D                      E         A

E----------------------------------------|
B----------------------------------------|
G---10~~---4b6--4--2---4<2<1---------2---|
D------------------------------------2---|
A------------------------------------0---|
E----------------------------------------|




Chords:

   A   E  E/G#  E/B   D   F#m   C#m    Esus4                 

E--0---0----0----0----2----2-----4------0----|
B--2---0----0----0----3----2-----5------0----|
G--2---1----1----1----2----2-----6------2----|
D--2---2----2----2----0----4-----6------2----|
A--0---2----2----2----0----4-----4------2----|
E------0----4--------------2-----4------0----|

FINISH!!!!!!
Comments