Muse - Origin Of Symmetry Chords & Tabs

 

Origin Of Symmetry Chords & Tabs

Muse Chords & Tabs

Version: 1 Type: Bass Tab 0 ratings
1 star 2 stars 3 stars 4 stars 5 stars
comments

Origin Of Symmetry Bass Tab

   
Artist - Muse
Album - Origin of Symmetry
Tabbed by: Zeidrich

Tracks:
1.New Born
2.Bliss
3.Space Dementia
4.Hyper Music
5.Plug in Baby
6.Citizen Erased
7.Micro Cuts
8.Feeling Good
9.Screenager
10.Dark Shines
11.Megalomania

-----------------------------------------------------------------------

1. New Born:

Piano intro... then

G|---9-----     ---5-----    ---4-----    ---8-----|
D|-----7-9-     -----3-5-    -----2-4-    -----6-8-|
A|-7------- x10 -3------- x2 -2------- x2 -6-------| x2
D|---------     ---------    ---------    ---------|

Do that however many times, guitar bit then:

G|-----------------------------------------------------------------|
D|-----------------------------------------------------------------|
A|-3-3-3-3-3-3-3-3-1-1-1-1-1-1-1-1-2-2-2-2-2-2-2-2-2-2-2-2-2-2-2-2-|
D|-----------------------------------------------------------------|

*Main Riff*

G|-----------------------------------------------------------------------|
D|-----------------------------------------------------------------------|
A|-----------------------------------------------------------------------|
D|-2-2-2-2-5-2-5-6-7-7-7-7-10-7-10-11-12-0-0-12-0-0-3-4-5-5-5-5-9-9-9-7--|

G|-----------------------------------------------------------------|
D|-----------------------------------------------------------------|
A|-3-3-3-3-3-3-3-3-1-1-1-1-1-1-1-1-2-2-2-2-2-2-2-2-2-2-2-2-2-2-2-2-|
D|-----------------------------------------------------------------|

Just follow the song, then go back into the intro riff for the verses.
When you get to the chorus do this a couple of times:

G|------------------------------------------------5---------3---------4---------4-|
D|--------------------------------------------------------------------------------|
A|-----------0-0-0--3--5-5-5------------2--3-3-3-----1-1-1-----2-2-2-----2-2-2----|
D|-2-2-2--5-------------------3--5-5-5--------------------------------------------|

Then theres some harmonics and back into the verse during the solo. Then theres
another chorus, and back into the *Main Riff* for a few times, and that should do it

------------------------------------------------------------------------

2. Bliss:

Piano arpeggios then: (you REALLY have to listen for the timing in this one)

G|------------------------15--------------------------------------------|
D|-10-10-10-10------------------------------------10---------10---------|
A|--------------13-13--13-----13-13-14-15--8-8-8-8------------------5-6-|
E|---------------------------------------------------8-8--8-----8-8-----|

G|-------------------------------------------------------|
D|-----------------3-------------------------10------8-9-|
A|--------3--------------1-2-3-3-3--6-----------6-6------|
E|-6-6-6----1-1--1---1-1--------------8-8--8-------------|

In the verse the beginning changes slightly to this:

G|-------------/15-----------|  Just adding in the extra slide there
D|-10-10-10-10---------------|  rest is just the same.
A|-----------------13-13--13-|
E|---------------------------|

Chorus:

G|--------------------------------------|
D|-10-10-10-10--7-7-7-7-----------------|
A|----------------------8-8-8-8-8-8-8-8-|
E|--------------------------------------|

G|--------------------------------------------------|
D|--------------------------------------------------|
A|-3333333300000000---------------------------------|
E|-----------------00000000000000001111111111111111-|

Then go back into the main riff.

Chorus 2:

G|--------------------------------------|
D|-10-10-10-10--7-7-7-7-----------------|
A|----------------------8-8-8-8-8-8-8-8-|
E|--------------------------------------|

G|--------------------------------------------------------------------------|
D|---------------------------------101010101010101077777777-----------------|
A|-3333333300000000----------------------------------------8888888888888888-|
E|-----------------0000000000000000-----------------------------------------|

G|--------------------------------------------------|
D|--------------------------------------------------|
A|-3333333300000000---------------------------------|
E|-----------------00000000000000001111111111111111-|

Some more piano arpeggios then: (accent ^ notes)
   ^                ^        ^        ^        ^        ^        ^ ^ ^ ^ ^ ^ ^^^^
G|--------------------------------------------------------------------------------|
D|-1010101010101010-88888888-33333333---------------------------------------------|
A|------------------------------------33333333-11111111----------3-3-3-3-3-3-3333-|
E|------------------------------------------------------11111111------------------|

Repeat chorus 2 to finish off

----------------------------------------------------------------------

3.Space Dementia

*Note - You will probably find that the octave part of this song is very high,
this is so to avoid dramaic re-tuning i.e. Dropped B or sumthin, so this is
kinda an easier way, but if u feel like playing it down then feel free*

Piano intro, come in when the drums come in: (crescendo on the low E)

G|--------------------------------------------------------------------|
D|-------------------------------------9 x16--11 x16--12 x16--13 x16--|
A|-------7 x32--9 x32--10 x32--12 x32---------------------------------|
E|-0 x32--------------------------------------------------------------|

Repeat all that for the 2nd verse. Then when theres a kinda synth bit
(which sounds a bit like new born) on piano, do this:

G|---9---9---8---8---7---7---6---6---5---5---4---4--|
D|--------------------------------------------------|
A|-7---7---6---6---5---5---4---4---3---3---2---2----|
E|--------------------------------------------------|

G|---9---10--12--13--14--16--17--18---7---9---10--11--12--14--15--17-|
D|-------------------------------------------------------------------|
A|-7---8---10--11--12--14--15--16---5---7---8---9---10--12--13--15---|
E|-------------------------------------------------------------------|

G|---5---7---8---9---10--9---7---6---4---6---7---8---9---9---9---9-|
D|-----------------------------------------------------------------|
A|-3---5---6---7---8---7---5---4---2---4---5---6---7---7---7---7---|
E|-----------------------------------------------------------------|

G|--10--10--10--10--10--10--10--10---16--16---16--16-|  **
D|----10------10------11------11-------16-------16---|
A|-8-------8-------8-------8-------14-------14-------|
E|---------------------------------------------------|

This bit isnt played on bass, but you can add it in for fun:

G|----|-4-2-0-----------------------------|
D|----|-------4-3-2-1-0-------------------|
A|-14-|-----------------4-3-2-1-----------|
E|----|-------------------------4-3-2-1-0-|

Then you go back to the beginning and do it all again but instead
of going to that bit just above, continue on from ** to this

G|---16--16--16--16--15--15--15--15-|
D|----------------------------------|
A|-14--14--14--14--13--13--13--13---| x3
E|----------------------------------|

G|---17--17--17--17--16--16--16--16--15--15--15--15--14--14--14--14-|
D|------------------------------------------------------------------|
A|-15--15--15--15--14--14--14--14--13--13--13--13--12--12--12--12---|
E|------------------------------------------------------------------|

G|---14--14--14--14-|
D|------------------|
A|-12--12--12--12---|
E|------------------|

Let each note ring out here. listen for timing:

G|-------------------------------------------------|
D|-------------------------------------------------|
A|-3-------------------------2---------3---2-------|
E|---------0-----8---7-6---2-------0-----------0---|

--------------------------------------------------------------------------------

4.Hyper Music

G|---------|
D|---------|
A|---------| x4
D|-0--12/--|

G|---------------------------------------|
D|---------------------------------------|
A|----5----------3--5---5--0h2--3--2--1--|
D|-0-----0h3--5-------0------------------|

Verse: Either play it on low D or hig D, which ever you prefer, I play high D

G|------------------------------------------------|
D|-0-0-x-2--x-3-3--x5--x-7-7--x-9--x-10-10--x-12--|
A|------------------------------------------------|
D|------------------------------------------------|

G|----------------------------------------------|
D|-5-5--x-5--x-5-5--x-5--x-5-5-x-7--x-8-8--x-1--|
A|----------------------------------------------|
D|----------------------------------------------|

Thats really about it for the whole song, just listen for what parts to play.

---------------------------------------------------------------------------------

5.Plug in Baby

G|---7---------7-    ---11---------11-    ----12------------12-|
D|-----------7---    -----------11----    ---------------12----|
A|-5---x-5-5----- x2 -9---x-9-9------- x2 -10----x-10-10-------| x2
E|---------------    -----------------    ---------------------|

Play through that for intro and verse, then prechorus is just:

G|---------------------------------|
D|---------------------------------|
A|-9-9-9-9-9-9-9-9-9-9-9-9-9-9-9-9-|
E|---------------------------------|

Chorus:

G|------------------------------------------------|
D|-------------------------------------11-12-11-7-|
A|-10-10-10-10-10-10-10-10-10-10-10-10------------|
E|------------------------------------------------|

G|----------------------------------|
D|-9-9-9-9-9-9-9-9------------------|
A|-----------------9-9-9-9-9-9-9-9--|
E|----------------------------------|

G|------------------------------------------------|
D|-------------------------------------11-12-11-7-|
A|-10-10-10-10-10-10-10-10-10-10-10-10------------|
E|------------------------------------------------|

G|----------------------------------|
D|-9-9-9-9-9-9-9-9------------------|
A|-----------------9-9-9-9---9-9-9--|
E|----------------------------------|

Repeat first two lines of chorus, then

G|-------------------------------------------------|
D|-------------------------------------------------|
A|-10-10-10-10-10-10-10-10-10-10-10-10-10-10-10-10-|
E|-------------------------------------------------|

G|-------------------------------------------------|
D|-12-12-12-12-12-12-12-12-12-12-12-12-12-12-12-12-|
A|-------------------------------------------------|
E|-------------------------------------------------|

Back to verse/intro and do it all again then you'll come to the bit where
there is the lead bit and vocals, where you do this:

G|-----------------------|
D|-----------------------|
A|-9 x16--10 x16--5 x16--| x2
E|-----------------------|

Then just back to verse/chorus riff

-------------------------------------------------------------------------------

6. Citizen Erased

Dont play when the the whole harmonics things going on

G|-----------------------------------------------------------|
D|-----------------------------------------------------------|
A|-0-0-12-0-12-12-0-12-12-0-12--0-0-10-0-10-10-0-10-10-0-10--|
E|-----------------------------------------------------------|

G|-----------------------------------------------|
D|-----------------------------------------------|
A|-0-0-8-0-8-8-0-8-8-0-8--0-0-7-0-7-7-0-7-7-0-7--|
E|-----------------------------------------------|

Repeat that however many times for the verse, then into chorus:

G|--------------------------------------------------------------------------|
D|--------------------------------------------------------------------------|
A|-88888888--------77777777121212121010101088888888--------7777777777777777-|
E|---------88888888--------------------------------88888888-----------------|

And repeat that a few times, then the song gets mellow:

G|--------------------------------------|
D|--------------------------------------|
A|-12-12-----10-10-----8-8-----7-7------|
E|--------------------------------------|

Repeat that a load of times, then onto mellow chorus:

G|-------------------------------------------------|
D|-------------------------------------------------|
A|-8-8---------7-7----12-12-10-10-8-8---------7-7--|
E|-------8-8----------------------------8-8--------|

Last time you play that, it goes like:

G|----------------------------------------------------------------|
D|----------------------------------------------------------------|
A|-8-8---------7-7----12-12-10-10-8-8---------7-777777777777-0-0--|
E|-------8-8----------------------------8-8-----------------------|

Then you go back to the verse, then into the chorus again, then it all
goes mellow again:

G|-----------------------|
D|-----------------------|
A|-8----10----12----7----| on 4th time, go down from the G (10th) to a C
E|-----------------------|

G|-------------------------------------------------------------------|
D|----------------------------------------------------5----5-5-5-----|
A|---------------------------5-----------------------------------7---|
E|-/8----5----3----1----0---------5----3----1----1-----------------8-| x2

-------------------------------------------------------------------------------

7. Micro Cuts

This song annoys me, as i have 2 ways of playing the verse and intro!
Pick your prefered way.

*Method 1*

Intro:

G|-----------------------------------------------------|
D|-----------------------------------------------------|
A|-55-55-55-55-55-77-88-99-1010-1010-55-44-55-55-55-55-|
D|-----------------------------------------------------|

Verse:

G|-----------------------------------------|
D|-----------------------------------------|
A|-55-77-88-99-1010-1010-55-44-55-55-55-55-|
D|-----------------------------------------|

*Method 2*

Intro:
[ Tab from: http://www.guitartabs.cc/tabs/m/muse/origin_of_symmetry_btab.html ]
G|--7-7-7-7-    --7-7-7-7-9-9-9-9-10-10-11-11--12--12--12--12--12--12--12--12-|
D|----------    --------------------------------------------------------------|
A|-5-5-5-5-- x8 -5-5-5-5-7-7-7-7-8--8--9--9--10--10--10--10--10--10--10--10---|
D|----------    --------------------------------------------------------------|

G|---12--12--12--12-7-7-7-7-7-7-6-6-6-6-6-6-7-7-7-7-7-7-7-7-7-7-7-7-|
D|------------------------------------------------------------------|
A|-10--10--10--10--5-5-5-5-5-5-4-4-4-4-4-4-5-5-5-5-5-5-5-5-5-5-5-5--|
D|------------------------------------------------------------------|

Verse:

G|--7-7-7-7-9-9-9-9-10-10-11-11--12--12--12--12--12--12--12--12--12--12--12--12-|
D|------------------------------------------------------------------------------|
A|-5-5-5-5-7-7-7-7-8--8--9--9--10--10--10--10--10--10--10--10--10--10--10--10---|
D|------------------------------------------------------------------------------|

G|--7-7-7-7-7-7-6-6-6-6-6-6-7-7-7-7-7-7-7-7-7-7-7-7-|
D|--------------------------------------------------|
A|-5-5-5-5-5-5-4-4-4-4-4-4-5-5-5-5-5-5-5-5-5-5-5-5--|
D|--------------------------------------------------|

Ok so choose the one you prefer. Then onto the chorus:

G|-----------------|
D|-----------------|
A|--x-x--x-x--x-x--|
D|-----------------|

G|------------------------------------------|
D|------------------------------------------|
A|------------------------------------------|
D|-5555555500000000555555555555555555555555- x2

G|------------------------------------------------------------------|
D|------------------------------------------------------------------|
A|------------------------------------------------------------------|
D|-5555555500000000555555556666666677777777777777777777777777777777-

Then go back into verse, then chorus, then into bridge:

G|----------------------------------------------------------------------|
D|----------------------------------------------------------------------|
A|--5-5-5-5-5-5-5-5-5-5-5-5-5-5-5-5-7-7-7-7-7-7-7-7-7-7-7-7-10-10-10-10-|
D|----------------------------------------------------------------------|

G|----------------------------------------------------------------------------------|
D|----------------------------------------------------------------------------------|
A|--9-9-9-9-9-9-9-9-9-9-9-9-9-9-9-9-12-12-12-12-12-12-12-12-12-12-12-12-12-12-12-12-|
D|----------------------------------------------------------------------------------|

G|------------------------------------------------------|
D|------------------------------------------------------|
A|-----------------10-10-10-10-8-8-8-8-7-7-7-7-7-7-7-7--|
D|-5-5-5-5-5-5-5-5--------------------------------------|

G|----------------------------------------------------------------------------------|
D|----------------------------------------------------------------------------------|
A|-0-0-0-0-7-7-7-7-0-0-0-0-0-0-0-0-0-0-0-0-0-0-0-0-0-0-0-0-0-0-0-0-0-0-0-0-0-0-0-0--|
D|----------------------------------------------------------------------------------|

Wee guitar riff, then Outro:

G|----------------------------------|
D|----------------------------------|
A|-5-4-3-0---------------------3-4--| x2
D|---------6-5-3-0-3-0-5-6-7-0------|

then

G|------------------|
D|------------------|
A|-5-4-3-0----------|
D|---------6-5-3-0--|

G|-------------|
D|-------------|
A|-------------|
D|-0--0--0--0--|

-----------------------------------------------------------------------------------

8. Feeling Good

Piano intro, then:

G|---------------------------|
D|-5--5-3--3-1--1-0--0-3-0-3-|
A|---------------------------| x3
E|---------------------------|

G|-----------------------------------------------------------|
D|-5--5-3--3-2--2-1--1-0--0----------------------------------|
A|--------------------------3--3-1--1-0--0-3-3-3-3-3-4-5-----|
E|--------------------------------------------------------3--|

Then theres an interlude bit:

G|----------------------2--|
D|-5--5-3--3-1--1-0--4-----|
A|-------------------------| x2
E|-------------------------|

G|-3--3----------------------------------|
D|------5--5-1--1---------------0-1--1-0-|
A|----------------3--3-1--1---1----------|
E|--------------------------3------------|

Into another verse/chorus:

G|---------------------------|
D|-5--5-3--3-1--1-0--0-3-0-3-|
A|---------------------------| x3
E|---------------------------|

G|------------------------------------------|
D|-5--5-3--3-2--2-1--1-0--0-----------------|
A|--------------------------3--3-1--1-0--3--|
E|------------------------------------------|

G|----------------------------------------------------------------------|
D|----------------------------------------------------------------------|
A|-3-2-1-0---0--------------/6---5-5-5-5-5-5-5-5-5-5-5-5-5-5-5-5-5-5-5\-|
E|-------------3-2-1---1-0----------------------------------------------|

Outro:

G|---------------------------|
D|-5--5-3--3-1--1-0--0-3-0-3-|
A|---------------------------| x2
E|---------------------------|

G|-----------------------------------------------------------|
D|-5--5-3--3-2--2-1--1-0--0----------------------------------|
A|--------------------------3--3-1--1-0--0-3-3-3-3-3-4-5-----|
E|---------------------------------------------------------3-|

--------------------------------------------------------------------------------

9. Screenager

Intro/Verse:

G|-----------      -------------    ----------|
D|-----------      -------------    ----------|
A|----------- x13  -------5--5-- x1 ----------| x2
E|-3----5-6--      -5---5-------    -3----5-6-|

Chorus:

G|------------------------------------|
D|------------------------------------|
A|-6-----6-----5-5---3-3---2-2---0-0--|
E|------------------------------------|

G|------------------------------------------------------------------|
D|------------------------------------------------------------------|
A|-5-5-5-5-5-5-5-5-6-6-6-6-6-6-6-6-7-7-7-7-7-7-7-7-7-7-7-7-7-7-7-7--| x3
E|------------------------------------------------------------------|

G|------------------------------------------------------------------|
D|------------------------------------------------------------------|
A|-5-5-5-5-5-5-5-5-6-6-6-6-6-6-6-6-7-7-7-7-7-7-7-7-6-6-6-6-5---5----|
E|------------------------------------------------------------------|

Back into verse:


G|-----------      -------------    ----------|
D|-----------      -------------    ----------|
A|----------- x9   -------5--5-- x1 ----------| x2
E|-3----5-6--      -5---5-------    -3----5-6-|

Chorus:

G|------------------------------------|
D|------------------------------------|
A|-6-----6-----5-5---3-3---2-2---0-0--|
E|------------------------------------|

G|------------------------------------------------------------------|
D|------------------------------------------------------------------|
A|-5-5-5-5-5-5-5-5-6-6-6-6-6-6-6-6-7-7-7-7-7-7-7-7-7-7-7-7-7-7-7-7--| x3
E|------------------------------------------------------------------|

G|------------------------------------------------------------------|
D|------------------------------------------------------------------|
A|-5-5-5-5-5-5-5-5-6-6-6-6-6-6-6-6-7-7-7-7-7-7-7-7-6-6-6-6-5---5----|
E|------------------------------------------------------------------|

Outro:

G|-----------      -------------    ----|
D|-----------      -------------    ----|
A|----------- x3   -------5--5-- x1 ----|
E|-3----5-6--      -5---5-------    -3--|

------------------------------------------------------------------------------

10. Dark Shines

Intro, some dodgy timing but just listen for it:

G|--------------------------------------------------------------|
D|---0-2-3---0-3---0-2-3---0-3-3-2h3-2-----2-----2h3-2-----2----|
A|-0-------0-----0-------0-------------4-0---4-0-------4-0---4--|
E|--------------------------------------------------------------|

G|---0-------0--------------------------2-------2-2-------------|
D|-----0-------0---0-3-0----3-0---0---2-----2-------------------|
A|-0-----1---------------0----------0-----0---------0-2-4---0-4-|
E|---------3---------------1------------------------------0-----|

Verse:

G|--------------------------------------------2-2-|
D|--0-0---0-0-------------------------------------|
A|--------------0-0---0-0---------1-1---0-0-------|
E|--------------------------3-3-------------------|

Then back into the intro riff. Then into the Chorus:

G|-------------------------------------------------------------|
D|-0-0-5h7-0-0-/--0-0-5h7-0-0-/--------------------------------|
A|-------------------------------0-0-5h7-0-0-/--0-0-5h7-0-0-/--|
E|-------------------------------------------------------------|

G|-------------------------------------------------------------|
D|--------------------2h3--------------------------------------|
A|-----3h5--------1-1-----1-1-/--0-0-5h7-0-0-/--0-0-5h7-0-0-/--|
E|-3-3-----3-3-/-----------------------------------------------|

Do the intro and verse again. Then back into the chorus. Then wee guitar bit:

G|-0-------0-------0------0-----------------------------------|
D|---0-------0---0---0------0---0-0-2-3---0--3----0-2-3---0-3-|
A|-----1---------------1----------------0-------0-------0-----| x2
E|-------3---------------3------------------------------------|

G|-1--------1------1--------1----------2-----2-------2-----2----|
D|---3-0------3--3---3-0------3------2-----2-------2-----2------|
A|-------2---------------2-------0-0-----0-----0-0-----0--------|
E|--------------------------------------------------------------|

G|-1--------1------1--------1------2-------2------2-------2---|
D|---3-0------3--3---3-0------3------2-------2------2-------2-|
A|-------2---------------2-------0-----4-0------0-----4-0-----|
E|------------------------------------------------------------|

This next bit is kinda the intro riff with bits missed out:

G|----------------------------------------|
D|-5-5--5-5----0-2-3---0-3---0-2-3---0-3--|
A|-------------------0-----0-------0------| x3
E|----------------------------------------|

G|------------------|
D|-7-----7-------7--|
A|---7-----7--------|
E|------------------|

Then its just back to the chorus but with some higher slides
End part is just messing around with the D|-0-0-5h7-0-0- idea.

--------------------------------------------------------------------------------

11. Megalomania

Organ intro, then verse:

G|--------------    --------------------------------|
D|--------------    --------------------------------|
A|-7--7--------- x6 -7--7-9--9-9--12--12-14--14-14--|
E|------7--7-7--    --------------------------------|

G|-----------------------------------------------------|
D|-----------------------------------------------------|
A|-7--7-3--3-3--2--2-0--0-0----------------------------|
E|---------------------------3--3-4--4-4--5--5-7--7-7--|

G|--------------    --------------------------------|
D|--------------    --------------------------------|
A|-7--7--------- x2 -7--7-9--9-9--12--12-14--14-14--|
E|------7--7-7--    --------------------------------|

G|-----------------------------------------------------|
D|-----------------------------------------------------|
A|-7--7-3--3-3--2--2-0--0-0----------------------------|
E|---------------------------3--3-4--4-4--5--5-7--7-7--|

PreChorus:

G|------------------------|
D|------------------------|
A|-7----5-5-5--5--5--2----|
E|------------------------|

Chorus:

G|-------------------------------------------------|
D|-------------------------------------------------|
A|-3-3-3-3-0-0-0-0-5-5-5-5-5-5-5-5-2-2-2-2---------|
E|-----------------------------------------3-3-3-3-|

G|--------------------------------------------------------------------|
D|--------------------------------------------------------------------|
A|-3-3-3-3-3-3-3-3-3-3-3-3-2-2-2-2-0-0-0-0-0-0-0-0-2-2-2-2-2-2-2-2-2--|
E|--------------------------------------------------------------------|

Verse 2 is slightly diff:

G|--------------    --------------------------------|
D|--------------    --------------------------------|
A|-7--7--------- x6 -7--7-9--9-9--12--12-14--14-14--|
E|------7--7-7--    --------------------------------|

G|-----------------------------------------------------|
D|-----------------------------------------------------|
A|-7--7-3--3-3--2--2-0--0-0----------------------------|
E|---------------------------3--3-4--4-4--5--5-7--7-7--|

G|--------------    --------------------------------|
D|--------------    --------------------------------|
A|-7--7--------- x2 -7--7-9--9-9--12--12-14--14-14--|
E|------7--7-7--    --------------------------------|

G|-----------------------------------------------------|
D|-----------------------------------------------------|
A|-7--7-11--11-11--10--10-11--11-11--12--12-14--14-14--|
E|-----------------------------------------------------|

Prechorus is same but chorus is diff:

G|-------------------------------------------------|
D|-------------------------------------------------|
A|-3-3-3-3-0-0-0-0-5-5-5-5-5-5-5-5-2-2-2-2---------|
E|-----------------------------------------3-3-3-3-|

G|--------------------------------------------------|
D|--------------------------------------------------|
A|-3-3-3-3-3-3-3-3-3-3-3-3-2-2-2-2-0-0-0-0-0-0-0-0--|
E|--------------------------------------------------|

G|---------------------------------|
D|---------------------------------|
A|-2-2-2-2-2-2-2-2-2-2-2-2-2-2-2-2-|
E|---------------------------------|

Outro:

G|-----------------------------------    ------------|
D|-----------------------------------    ------------|
A|-9-9-9-9-9999-9-9-5-5-5-5-5555-5-5- x4 -9----------|
E|-----------------------------------    -------2----|

----------------------------------------------------------------------------------

And that should be pretty much the whole album. Please Rate!
Comments