Muse - New Born Chords & Tabs

 

New Born Chords & Tabs

Muse Chords & Tabs

Version: 6 Type: Tab 0 ratings
1 star 2 stars 3 stars 4 stars 5 stars
comments

New Born Tab

   
New Born
Muse

TABBER: Unknown

I've looked at the other versions of this song elsewhere on the site and I don't think 
any of them are quite right (no offence meant) so I have submitted the complete version,
 which I know is 100% correct, but if you disagree, e-mail me with your comments or 
corrections at sarah.lardy@virgin.net, I know some of the lyrics are a bit dodgy, so if 
you know what Matt is really saying,please feel free to let me know.
I'm quite proud of this as it's only my second tab i've done and i've only been playing 
a couple of months and I think it's quite straightforward and easy to understand, but 
again, any complaints to the above address.

!!!!!!!!!!!!Don't forget to downtune your bottom E string to D!!!!!!!!!!!!! 

INTRO: (00.14)

  Em               Bsus4             Em                Bsus4    B
e-----7-------7---|-----7-------7---|-----7-------7---|-----7-------7---|
b---8---8---8---8-|---7---7---7---7-|---8---8---8---8-|---7---7---7---7-|
g-9-------9-------|-9-------9-------|-9-------9-------|-9-------8-------|
d-----------------|-----------------|-----------------|-----------------|
A-----------------|-----------------|-----------------|-----------------|
D-----------------|-----------------|-----------------|-----------------|

(For the first 2 notes of the arpeggio use downstrokes and use upstrokes
for the second 2. Also, it's easier just to barre the 7th fret)


VERSES 1-4: (00.28)

  Em               Bsus4             Em                Bsus4           
e-----7-------7---|-----7-------7---|-----7-------7---|-----7-------7---|
b---8---8---8---8-|---7---7---7---7-|---8---8---8---8-|---7---7---7---7-|
g-9-------9-------|-9-------9-------|-9-------9-------|-9-------9-------|
d-----------------|-----------------|-----------------|-----------------|
A-----------------|-----------------|-----------------|-----------------|
D-----------------|-----------------|-----------------|-----------------|
 
  Em               C                 G                   B
e-------------7---|-----8-------8---|-----10-------10---|-----7-------7---|
b---8---8---8---8-|---8---8---8---8-|---8----8---8----8-|---7---7---7---7-|
g-9---9---9-------|-9-------9-------|-7--------7--------|-8-------8-------|
d-----------------|-----------------|-------------------|-----------------|
A-----------------|-----------------|-------------------|-----------------|
D-----------------|-----------------|-------------------|-----------------|

(Again, use a barre on the 7th fret, moving up to the 8th fret at the
C chord and back down again for the G and B chords)


ROCK RIFF: (01.24)

  E                A                 D                 G
e-----------------|-----------------|-----------------|-----------------|
b-----------------|-----------------|-----------------|-----------------|
g-----------------|-----------------|-----------------|-----------------|
d-----------------|-----------------|-----------------|-----------------|
A-----------------|-0-0-0-0-3-0-3-4-|-5-----5---------|---------2-2-2-0-|
D-2-2-2-2-5-2-5-6-|-----------------|---0-0---0-0-3-4-|-5-5-5-0---------|

  C                A#dim             Em/B              B
e-----------------|------------------|----------------|-----------------|
b-----------------|------------------|---------0------|---------4-------|
g-----0-0-0-0-0-0-|------0---------0-|-----0---0------|-----4-4-4-------|
d---2-2-2-2-2-2-2-|---2--2------2--2-|---2---2-2--2---|---4-4-4-4-4-0---|
A-3-3-3-3-3-3-3-0-|-1----1----1----1-|-2-------2--2-0-|-2-2-2-2-2-2-0---|
D-----------------|------------------|----------------|-----------------|

Repeat the above twice, after which play....

   C             A#dim            Em/B             B                E5
e--------------|----------------|---------------|---------------|--------|
b--1---1--x-x--|--2--------x-x--|--0--0---0--0--|--4------------|--------|
g--0---0--x-x--|--0--0-----x-x--|--0--0---0--0--|--4------------|---9\---|
d--2---2--x-x--|--2-----2--x-x--|--2--2---2--0--|--4------------|---9\---|
A--3---3--x-x--|--1--------x-x--|--2--2---2--0--|--2------------|---7\---|
D--------------|----------------|---------------|---------4--2--|--------|

(The first four bars should be played with downstrokes and are extremely
fuzzy, the rest of the riff is played more cleanly, but the playing is
quite loose, so it doesn't really matter about accuracy)


BRIDGE RIFF: (02.00)

  E
e-------------------|-------------------|------------------|------------------|
b-------------------|-------------------|------------------|------------------|
g-------------------|-------------------|------------------|------------------|
d-------------------|-------------------|------------------|------------------|
A---2-0-2----2-0-2--|---2-0-2----2-0-2--|---2-0-2----2-0-2-|---2-0-2----2-0-2-|
D-2--------2--------|-2--------2--------|-2--------2-------|-2--------2-------|

(Use your first finger to fret the low E and your second finger the high E and B.
This doubles the bass and later continues below the guitars range, so a pitch-
shifter or VG-8 set down an octave is used, played at the 7th position)


VERSES 5-8: (02.08)
[ Tab from: http://www.guitartabs.cc/tabs/m/muse/new_born_tab_ver_6.html ]
  Em                            B                         Em              
e-12-x-x-12-x-x-12-x-x-12-x-x-|-7-x-x-7-x-x-7-x-x-7-x-x-|-12-x-x-12-x-x-12-x-x-12-x-x-|
b-12-x-x-12-x-x-12-x-x-12-x-x-|-7-x-x-7-x-x-7-x-x-7-x-x-|-12-x-x-12-x-x-12-x-x-12-x-x-|
g-12-x-x-12-x-x-12-x-x-12-x-x-|-8-x-x-8-x-x-8-x-x-8-x-x-|-12-x-x-12-x-x-12-x-x-12-x-x-|
d-----------------------------|-------------------------|-----------------------------|
A-----------------------------|-------------------------|-----------------------------|
D-----------------------------|-------------------------|-----------------------------|

   B                        Em                            C
e-7-x-x-7-x-x-7-x-x-7-x-x-|-12-x-x-12-x-x-12-x-x-12-x-x-|-12-x-x-12-x-x-12-x-x-12-x-x-|
b-7-x-x-7-x-x-7-x-x-7-x-x-|-12-x-x-12-x-x-12-x-x-12-x-x-|-13-x-x-13-x-x-13-x-x-13-x-x-|
g-8-x-x-8-x-x-8-x-x-8-x-x-|-12-x-x-12-x-x-12-x-x-12-x-x-|-12-x-x-12-x-x-12-x-x-12-x-x-|
d-------------------------|-----------------------------|-----------------------------|
A-------------------------|-----------------------------|-----------------------------|
D-------------------------|-----------------------------|-----------------------------|

  G6                            B
E-12-x-x-12-x-x-12-x-x-12-x-x-|-7-x-x-7-x-x-7-x-x-7-x-x-|
B-12-x-x-12-x-x-12-x-x-12-x-x-|-7-x-x-7-x-x-7-x-x-7-x-x-|
G-12-x-x-12-x-x-12-x-x-12-x-x-|-8-x-x-8-x-x-8-x-x-8-x-x-|
d-----------------------------|-------------------------|
A-----------------------------|-------------------------|
D-----------------------------|-------------------------|


MIDDLE SECTION: (02.59)

 Em  G6 Am         D         G           C             A#dim7       Em/B      B
e----0--0-------|----------------------|--------------------------|-0-0-0-0-0-----------|
b-0--0--1-------|----------------------|-5-5-5--5-x---2-2-2--2----|-0-0-0-0-0-4-4-4-4-x-|
g-0--0--2--2--7-|-11--11--7--12--11----|-5-5-5--5-x---0-0-0--0--0-|-0-0-0-0-0-4-4-4-4-x-|
d-2--5--2--2----|----------------------|-5-5-5--5-x---2-2-2--2--2-|-2-2-2-2-2-4-4-4-4-x-|
A-2--5--0--0--5-|--9---9--5--10---9--0-|-3-3-3--3-----1-1-1--1--1-|-2-2-2-2-2-2-2-2-2-X-|
D-2--5----------|--0---0---------------|--------------------------|---------------------|

(The tempo is cut to half here, the chords are similar to the earlier rock riff and 
should be played loudly. Use your first and third finger to fret the octaves, making 
sure to damp all the other strings other than the low D)


PRE SOLO HARMONICS: (03.24)

e-------|---------------------------|----------------------------------------|
b-------|---------------------------|----------------------------------------|
g-------|---------------------------|----------------------------------------|
d-------|---------------------------|----------------------------------------|
A-------|--------------------(3)(3)-|(3)-------------(3)---------------------|
D-x--x--|-x--x--x--x--x--x--x-------|----(3)-(3)-(3)-----(3)-(3)-(2.5)-(2.5)-|

e----------------------------------------------------------------------------|
b----------------------------------------------------------------------------|
g----------------------------------------------------------------------------|
d----------------------------------------------------------------------------|
A----------------------------------------------------------------------------|
D--(2.5)---(2.5)---(2.5)---(2.5)---(2.5)---(2.5)---(2.5)-------(1.8)---(1.8)-|

e------------------------------------------------------------------------------------------------|
b------------------------------------------------------------------------------------------------|
g------------------------------------------------------------------------------------------------|
d------------------------------------------------------------------------------------------------|
A------------------------------------------------------------------------------------------------|
D(1.8)-(1.8)-(1.8)-(1.8)-(1.8)-(1.8)-(1.8)-(1.8)-(1.8)-(1.8)-(1.8)-(1.8)-(1.8)-(1.8)-(1.8)-(1.8)-|

(It doesn't really matter whereabouts you mute the bottom string as long as you don't hit a
harmonic. Use alternate picking for the semi-quaver rhythms, but downstrokes for the quavers.
Use lots of distortion for the harmonics)

SOLO: (03.31)
      
(w/whammy pedal(-8ve)

          Em                   B                    Em                 B
                            s                    s                  s                    s
e--(7)--|-19--15--12--15--11-|-19--14--11--14--10-|-19--15-12-15--11-|-19--14--11--14--10-|
b-------|-//--//--//--//--//-|-//--//--//--//--//-|-//--//-//-//--//-|-//--//--//--//--//-|
g-------|--------------------|--------------------|------------------|--------------------|
d-------|--------------------|--------------------|------------------|--------------------|
A-------|--------------------|--------------------|------------------|--------------------|
D-------|--------------------|--------------------|------------------|--------------------|

    Em                     C                     G                          B
                                                                         ~~~~~bd  bu
e-19-(19)(15)15-(15)--12--19-|-20--15------20--|--19--15-------------|------------------7-x-x-|
b-//--//-----//-------//--//-|-//--//--17--//--|--//--//--15--\--x-x-|-(16)----(15)(18)-7-x-x-|
g----------------------------|---------//------|---------------------|------------------7-x-x-|
d----------------------------|-----------------|---------------------|------------------------|
A----------------------------|-----------------|---------------------|------------------------|
D----------------------------|-----------------|---------------------|------------------------|

(This solo is really hard to play accurately, because of the speed and slides, especially
when Matt uses his whammy pedal to swoop into the third bar. Do it slowly and build upt the
speed, using alternate picking throughout)






Wish I could take all the credit for this tab, but most of it is based on one I found 
in a magazine, including the helpful tips on how to play each separate part, but it did
take me bloody ages to tab it. So there.
Comments