Muse - New Born Chords & Tabs

 

New Born Chords & Tabs

Muse Chords & Tabs

Version: 4 Type: Tab 1 rating
1 star 2 stars 3 stars 4 stars 5 stars
comments

New Born Tab

New born 
by Muse
from the album origin of symettry


Intro (yeah i know it should be piano)
-----7--------7---------7--------7-----
---8---8----8---8-----8---8----8---8---
-9--------9---------8--------8---------
---------------------------------------
---------------------------------------
---------------------------------------


-----7--------7---------7--------7-----
---8---8----8---8-----8---8----8---8---
-9--------9---------8--------8---------
---------------------------------------
---------------------------------------
---------------------------------------
[ Tab from: http://www.guitartabs.cc/tabs/m/muse/new_born_tab_ver_4.html ]
-----7--------7--------7--------7--------7--------7---
---8---8----8---8----8---8----8---8----8---8----8---8-
-7--------7--------8--------8--------9--------9-------
------------------------------------------------------
------------------------------------------------------
------------------------------------------------------


Heavy bit

---------------------------------------------------
---------------------------------------------------
---------------------------------------------------
---------------------------------------------------
---------------------------------------------------
-0-0-0-0-3-0-3-0-5-5-5-5-8-5-8-5-10-0-0-10-0-0-0-0- cont

--------------------------
--------------------------
--------------------------
--------------------------
--------------------------
-3-3-3-7-7-7-8x8-6x8-7x16-
Comments