Muse - New Born Chords & Tabs

 

New Born Chords & Tabs

Muse Chords & Tabs

Version: 18 Type: Tab 0 ratings
1 star 2 stars 3 stars 4 stars 5 stars
comments

New Born Tab

   
                             NEW BORN (LIVE) (Live)
                               As recorded by Muse
                    (From the 2001 Album ORIGIN OF SYMMETRY)

ALL GUITARS IN THIS TRACK ARE IN DROP-D TUNING: (D A D G B E) -

I've seen an awful lot of wrong or incomplete tabs for this song over the years so I
thought I'd do a proper, once-and-for-all transcription of it. This tab is mostly based
on the studio recording of the song, but also includes a few additional bits and pieces
taken from live recordings-- most notably the slightly modified piano introduction and
guitar solo. If you'd like to play a straight version of the song, it's easy enough to
ignore the changes.

The tapping solo itself may be played one octave lower than transcribed, on the B string.
However, Matt uses a pitchshifter effect to make it sound higher than he's playing it, so
I've tabbed it on the E string to allow for that. 

The song contains an awful lot of improvisation, adlib and general mucking about on the
guitarist's end (especially in the live version)-- these parts are indicated.

The only part of this tab I'm not 100% sure on is the chorus, which is based loosely on
the official tab. However, it sounds about right, and I don't think it's easily possible
to tell beyond that point when it comes to messy chords like that.



INTRO -- PIANO
This is transcribed for both hands-- use two guitars to play the bass and treble piano
clef at once.



|-7-------7-------|-7-------7-------|-7-------7-------|-7-------7-------|
|---8---8---8---8-|---7---7---7---7-|---8---8---8---8-|---7---7---7---7-|
|-----9-------9---|-----8-------8---|-----9-------9---|-----8-------8---|
|-----------------|-----------------|-----------------|-----------------|
|-----------------|-----------------|-----------------|-----------------|
|-----------------|-----------------|-----------------|-----------------|
| 
|-----------------|-----------------|-----------------|-----------------|
|-----------------|-----------------|-----------------|-----------------|
|-----4-------4---|-----4-------4---|-----4-------4---|-----4-------4---|
|---5---5---5---5-|---4---4---4---4-|---5---5---5---5-|---4---4---4---4-|
|-7-------7-------|-7-------7-------|-7-------7-------|-7-------7-------|
|-----------------|-----------------|-----------------|-----------------|


  N.C.
|-7-------7-------|-8-------10---8---|-7-------7-------|-7-------7-------|
|---8---8---8---8-|---8---8--------8-|---8---8---8---8-|---7---7---7---7-|
|-----9-------9---|-----9------9-----|-----7-------7---|-----8-------8---|
|-----------------|------------------|-----------------|-----------------|
|-----------------|------------------|-----------------|-----------------|
|-----------------|------------------|-----------------|-----------------|
|
|-----------------|------------------|-----------------|-----------------|
|-----------------|------------------|-----------------|-----------------|
|-----4-------4---|-----5--------5---|-----4-------4---|-----4-------4---|
|---5---5---5---5-|---5---5----5---5-|---5---5---5---5-|---4---4---4---4-|
|-7-------7-------|-7--------7-------|-5-------5-------|-6-------6-------|
|-----------------|------------------|-----------------|-----------------|


  Em                        B
|-19----------19----------|-19----------19----------|
|----20----20----20----20-|----19----19----19----19-|
|-------21----------21----|-------20----------20----|
|-------------------------|-------------------------|
|-------------------------|-------------------------|
|-------------------------|-------------------------|
|
|-------------------------|-------------------------|
|-------12----------12----|-------12----------12----|
|----12----12----12----12-|----11----11----11----11-|
|-14----------14----------|-14----------14----------|
|-------------------------|-------------------------|
|-------------------------|-------------------------|


  Em                        B
|-19----------19----------|-19----------19----------|
|----20----20----20----20-|----19----19----19----19-|
|-------21----------21----|-------20----------20----|
|-------------------------|-------------------------|
|-------------------------|-------------------------|
|-------------------------|-------------------------|
|
|-------------------------|-------------------------|
|-------12----------12----|-------12----------12----|
|----12----12----12----12-|----11----11----11----11-|
|-14----------14----------|-14----------14----------|
|-------------------------|-------------------------|
|-------------------------|-------------------------|


  Em                        C
|-19----------19----------|-20----------22----20----|
|----20----20----20----20-|----20----20----------20-|
|-------21----------21----|-------21-------21-------|
|-------------------------|-------------------------|
|-------------------------|-------------------------|
|-------------------------|-------------------------|
|
|-------------------------|-------------------------|
|-------12----------12----|-------13----------13----|
|----12----12----12----12-|----12----12----12----12-|
|-14----------14----------|-14----------14----------|
|-------------------------|-------------------------|
|-------------------------|-------------------------|


  G                         B
|-19----------19----------|-19----------19----------|
|----20----20----20----20-|----19----19----19----19-|
|-------19----------19----|-------20----------20----|
|-------------------------|-------------------------|
|-------------------------|-------------------------|
|-------------------------|-------------------------|
|
|-------------------------|-------------------------|
|-------12----------12----|-------12----------12----|
|----12----12----12----12-|----11----11----11----11-|
|-12----------12----------|-13----------13----------|
|-------------------------|-------------------------|
|-------------------------|-------------------------|


   Verse
    Em                        B
||--19----------19----------|-19----------19----------|
||o----20----20----20----20-|----19----19----19----19-|
||--------21----------21----|-------20----------20----|
||--------------------------|-------------------------|
||o-------------------------|-------------------------|
||--------------------------|-------------------------|
|
||--------------------------|-------------------------|
||o-------12----------12----|-------12----------12----|
||-----12----12----12----12-|----11----11----11----11-|
||--14----------14----------|-14----------14----------|
||o-------------------------|-------------------------|
||--------------------------|-------------------------|


  Em                        B
|-19----------19----------|-19----------19-----------|
|----20----20----20----20-|----19----19----19----19--|
|-------21----------21----|-------20----------20-----|
|-------------------------|--------------------------|
|-------------------------|--------------------------|
|-------------------------|--------------------------|
|
|-------------------------|--------------------------|
|-------12----------12----|-------12----------12-----|
|----12----12----12----12-|----11----11----11----11--|
|-14----------14----------|-14----------14-----------|
|-------------------------|--------------------------|
|-------------------------|--------------------------|


  1.,2.
  Em                        C
|-19----------19----------|-20----------20----------|
|----20----20----20----20-|----20----20----20----20-|
|-------21----------21----|-------21----------21----|
|-------------------------|-------------------------|
|-------------------------|-------------------------|
|-------------------------|-------------------------|
|
|-------------------------|-------------------------|
|-------12----------12----|-------13----------13----|
|----12----12----12----12-|----12----12----12----12-|
|-14----------14----------|-14----------14----------|
|-------------------------|-------------------------|
|-------------------------|-------------------------|


  G                         B
                                                     3x
|-19----------19----------|-19----------19-----------||
|----20----20----20----20-|----19----19----19----19-o||
|-------19----------19----|-------20----------20-----||
|-------------------------|--------------------------||
|-------------------------|-------------------------o||
|-------------------------|--------------------------||
|
|                                                    3x
|-------------------------|--------------------------||
|-------12----------12----|-------12----------12----o||
|----12----12----12----12-|----11----11----11----11--||
|-12----------12----------|-13----------13-----------||
|-------------------------|-------------------------o||
|-------------------------|--------------------------||


  3.
  Em                        C
|-19----------19----------|-20----------20----------|
|----20----20----20----20-|----20----20----20----20-|
|-------21----------21----|-------21----------21----|
|-------------------------|-------------------------|
|-------------------------|-------------------------|
|-------------------------|-------------------------|
|
|-------------------------|-------------------------|
|-------12----------12----|-------13----------13----|
|----12----12----12----12-|----12----12----12----12-|
|-14----------14----------|-14----------14----------|
|-------------------------|-------------------------|
|-------------------------|-------------------------|
|

  H.=H                      Q=50
  G                         B
|-19----------19----------|-^19----|
|----20----20----20----20-|-^19----|
|-------19----------19----|-^20----|
|-------------------------|--------|
|-------------------------|--------|
|-------------------------|--------|
|
|-------------------------|--------|
|-------12----------12----|-^12----|
|----12----12----12----12-|-^11----|
|-12----------12----------|-^13----|
|-------------------------|--------|
|-------------------------|--------|
|
|                             <
|-------------------------|--------|
|-------------------------|--------|
|-------------------------|--------|
|-------------------------|---2----|
|-------------------------|---2----|
|-------------------------|---2----| <-- DISTORTED GUITAR ENTERS HERE


 Guitar Break
  Q=147
  E5      G5    G#5 A5      C5 A5C5 C#5  D5            F5F#5 G5    D5B5    A5
  
|-----------------|--------------------|-------------------|-----------------|
|-----------------|--------------------|-------------------|-----------------|
|-----------------|--------------------|-------------------|-----------------|
|-2-2-2-2-5-2-5-6-|-7-7-7-7-10-7-10-11-|-12-0-0-12-0-0-3-4-|-5-5-5-0-9-9-9-7-|
|-2-2-2-2-5-2-5-6-|-7-7-7-7-10-7-10-11-|-12-0-0-12-0-0-3-4-|-5-5-5-0-9-9-9-7-|
|-2-2-2-2-5-2-5-6-|-7-7-7-7-10-7-10-11-|-12-0-0-12-0-0-3-4-|-5-5-5-0-9-9-9-7-|


  C                 Em6/Bb              Emadd9/B        B
|-0-0-0-0-0-0-0-0-|-0-0-0-0-0-0-0-0-|-2-2-2-2-2-2-2-2-|-2-2-2-2-2-2-2-2-|
|-1-1-1-1-1-1-1-1-|-2-2-2-2-2-2-2-2-|-0-0-0-0-0-0-0-0-|-4-4-4-4-4-4-4-4-|
|-0-0-0-0-0-0-0-0-|-0-0-0-0-0-0-0-0-|-0-0-0-0-0-0-0-0-|-4-4-4-4-4-4-4-4-|
|-2-2-2-2-2-2-2-2-|-2-2-2-2-2-2-2-2-|-2-2-2-2-2-2-2-2-|-4-4-4-4-4-4-4-4-|
|-3-3-3-3-3-3-3-3-|-1-1-1-1-1-1-1-1-|-2-2-2-2-2-2-2-2-|-2-2-2-2-2-2-2-2-|
|-----------------|-----------------|-----------------|-----------------|


    E5      G5E5G5G#5 A5      C5 A5C5 C#5
    Gtr III
||------------------|--------------------|
||o-----------------|--------------------|
||------------------|--------------------|
||--2-2-2-2-5-2-5-6-|-7-7-7-7-10-7-10-11-|
||o-2-2-2-2-5-2-5-6-|-7-7-7-7-10-7-10-11-|
||--2-2-2-2-5-2-5-6-|-7-7-7-7-10-7-10-11-|


  D5            F5F#5 G5    D5B5    A5
|-------------------|------------------|
|-------------------|------------------|
|-------------------|------------------|
|-12-0-0-12-0-0-3-4-|-5-5-5-0-9-9-9-7--|
|-12-0-0-12-0-0-3-4-|-5-5-5-0-9-9-9-7--|
|-12-0-0-12-0-0-3-4-|-5-5-5-0-9-9-9-7--|


  C          Em6/Bb         Emadd9/B   B
|-0--------|-0------(0)---|-2--------|-------||
|-1--------|-2------(2)---|-0--------|-4----o||
|-0--------|-0------(0)---|-0--------|-4-----||
|-2--------|-2------(2)-0-|-2--------|-4-----||
|-3--------|-1------(1)-0-|-2--------|-2----o||
|----------|------------0-|----------|-------||


  Em
|-----------|---------|---------|-----|
|-----------|---------|---------|-----|
|-9\--------|---------|---------|-----|
|-9\--------|---------|---------|-----|
|-7\--------|---------|---------|-----|
|-----------|---------|---------|-----|


   Verse
    Em                        B
||--7-x-x-7-x-x-7-x-x-7-x-x-|-7-x-x-7-x-x-7-x-x-7-x-x-|
||o-8-x-x-8-x-x-8-x-x-8-x-x-|-7-x-x-7-x-x-7-x-x-7-x-x-|
||--9-x-x-9-x-x-9-x-x-9-x-x-|-8-x-x-8-x-x-8-x-x-8-x-x-|
||--------------------------|-------------------------|
||o-------------------------|-------------------------|
||--------------------------|-------------------------|


  Em                        B
|-7-x-x-7-x-x-7-x-x-7-x-x-|-7-x-x-7-x-x-7-x-x-7-x-x---|
|-8-x-x-8-x-x-8-x-x-8-x-x-|-7-x-x-7-x-x-7-x-x-7-x-x---|
|-9-x-x-9-x-x-9-x-x-9-x-x-|-8-x-x-8-x-x-8-x-x-8-x-x---|
|-------------------------|---------------------------|
|-------------------------|---------------------------|
|-------------------------|---------------------------|


  Em                        C
|-7-x-x-7-x-x-7-x-x-7-x-x-|-8-x-x-8-x-x-8-x-x-8-x-x-|
|-8-x-x-8-x-x-8-x-x-8-x-x-|-8-x-x-8-x-x-8-x-x-8-x-x-|
|-9-x-x-9-x-x-9-x-x-9-x-x-|-9-x-x-9-x-x-9-x-x-9-x-x-|
|-------------------------|-------------------------|
|-------------------------|-------------------------|
|-------------------------|-------------------------|


  G                         B
                                                        3x
|-7-x-x-7-x-x-7-x-x-7-x-x-|-7-x-x-7-x-x-7-x-x-7-x-x-----||
|-8-x-x-8-x-x-8-x-x-8-x-x-|-7-x-x-7-x-x-7-x-x-7-x-x----o||
|-7-x-x-7-x-x-7-x-x-7-x-x-|-8-x-x-8-x-x-8-x-x-8-x-x-----||
|-------------------------|-----------------------------||
|-------------------------|----------------------------o||
|-------------------------|-----------------------------||


  Em                        B
|-7-x-x-7-x-x-7-x-x-7-x-x-|-7-x-x-7-x-x-7-x-x-7-x-x-|
|-8-x-x-8-x-x-8-x-x-8-x-x-|-7-x-x-7-x-x-7-x-x-7-x-x-|
|-9-x-x-9-x-x-9-x-x-9-x-x-|-8-x-x-8-x-x-8-x-x-8-x-x-|
|-------------------------|-------------------------|
|-------------------------|-------------------------|
|-------------------------|-------------------------|

[ Tab from: http://www.guitartabs.cc/tabs/m/muse/new_born_tab_ver_18.html ]
  Em                        B
|-7-x-x-7-x-x-7-x-x-7-x-x-|-7-x-x-7-x-x-7-x-x-7-x-x----|
|-8-x-x-8-x-x-8-x-x-8-x-x-|-7-x-x-7-x-x-7-x-x-7-x-x----|
|-9-x-x-9-x-x-9-x-x-9-x-x-|-8-x-x-8-x-x-8-x-x-8-x-x----|
|-------------------------|----------------------------|
|-------------------------|----------------------------|
|-------------------------|----------------------------|


  Em                        C
|-7-x-x-7-x-x-7-x-x-7-x-x-|-8-x-x-8-x-x-8-x-x-8-x-x-|
|-8-x-x-8-x-x-8-x-x-8-x-x-|-8-x-x-8-x-x-8-x-x-8-x-x-|
|-9-x-x-9-x-x-9-x-x-9-x-x-|-9-x-x-9-x-x-9-x-x-9-x-x-|
|-------------------------|-------------------------|
|-------------------------|-------------------------|
|-------------------------|-------------------------|


  G                         B
|-7-x-x-7-x-x-7-x-x-7-x-x-|----------------|
|-8-x-x-8-x-x-8-x-x-8-x-x-|-4-----4-----4--|
|-7-x-x-7-x-x-7-x-x-7-x-x-|-4-4-4-4-4-4-4--|
|-------------------------|-4-4-4-4-4-4-4--|
|-------------------------|-2-2-2-2-2-2-2--|
|-------------------------|----------------|


   Chorus
    E5                A5
||---------0--------|------------------|
||o--------0--------|--------10--------|
||---------0--------|---------9--------|
||--2-2-2--2--(2)\--|-7-7-7---7--(7)\--|
||o-2-2-2--2--(2)\--|-7-7-7---7--(7)\--|
||--2-2-2--2--(2)\--|-7-7-7---7--(7)\--|


  D                  G5          D/F#
|------------------|--------------------------|
|------------------|--------------------------|
|--------11--------|-12-12-12-12-11-11-11-11--|
|-0-0-0---0--(0)\--|--0--0--0--0--0--0--0--0--|
|-9-9-9---9--(9)\--|-10-10-10-10--9--9--9--9--|
|-0-0-0---0--(0)\--|--------------------------|


  C/E                 Bbm6/E        Em/B          B
|-------------------|-------------|-------------|-2-2-2--2-----||
|------------8------|-8-8-8--8----|-5-5-5--5----|-4-4-4--4----o||
|--9--9--9---9---9--|-6-6-6--6----|-4-4-4--4----|-4-4-4--4-----||
|-10-10-10--10--10--|-8-8-8--8----|-5-5-5--5----|-4-4-4--4-----||
|--7--7--7---7---7--|-7-7-7--7----|-2-2-2--2----|-2-2-2--2----o||
|-------------------|-------------|-------------|--------------||


 Guitar Solo

NOTE - this solo is based on the live version of the track, where Matt plays a cool
tapping solo. If you don't want to do this, simply ignore the tapped part and play
the following non-tapped part twice.

  
|-------------|---------------|---------|-----|
|-------------|---------------|---------|-----|
|-1tr2--------|-(1tr2)--------|---------|-----|
|-------------|---------------|---------|-----|
|-------------|---------------|---------|-----|
|-------------|---------------|---------|-----|


    Em
     T     T     T     T     T     T     T     T     T     T     T     T     T     T     T     T
||--19p12h15p12h19p12h15p12-19p12h15p12h19p12h15p12-19p12h15p12h19p12h15p12-19p12h15p12h19p12h15p12-|
||o-------------------------------------------------------------------------------------------------|
||--------------------------------------------------------------------------------------------------|
||--------------------------------------------------------------------------------------------------|
||o-------------------------------------------------------------------------------------------------|
||--------------------------------------------------------------------------------------------------|


  B
   T     T     T     T     T     T     T     T     T     T     T     T     T     T     T     T
|-19p11h14p11h19p11h14p11-19p11h14p11h19p11h14p11-19p11h14p11h19p11h14p11-19p11h14p11h19p11h14p11---||
|--------------------------------------------------------------------------------------------------o||
|---------------------------------------------------------------------------------------------------||
|---------------------------------------------------------------------------------------------------||
|--------------------------------------------------------------------------------------------------o||
|---------------------------------------------------------------------------------------------------||


  Em
   T     T     T     T     T     T     T     T     T     T     T     T     T     T     T     T
|-19p12h15p12h19p12h15p12-19p12h15p12h19p12h15p12-19p12h15p12h19p12h15p12-19p12h15p12h19p12h15p12--|
|--------------------------------------------------------------------------------------------------|
|--------------------------------------------------------------------------------------------------|
|--------------------------------------------------------------------------------------------------|
|--------------------------------------------------------------------------------------------------|
|--------------------------------------------------------------------------------------------------|


  C
   T     T     T     T     T     T     T     T     T     T     T     T     T     T     T     T
|-20p12h15p12h20p12h15p12-20p12h15p12h20p12h15p12-20p12h15p12h20p12h15p12-20p12h15p12h20p12h15p12--|
|--------------------------------------------------------------------------------------------------|
|--------------------------------------------------------------------------------------------------|
|--------------------------------------------------------------------------------------------------|
|--------------------------------------------------------------------------------------------------|
|--------------------------------------------------------------------------------------------------|


  G
   T     T     T     T     T     T     T     T     T     T     T     T     T     T     T     T
|-19p10h15p10h19p10h15p10-19p10h15p10h19p10h15p10-19p10h15p10h19p10h15p10-19p10h15p10h19p10h15p10--|
|--------------------------------------------------------------------------------------------------|
|--------------------------------------------------------------------------------------------------|
|--------------------------------------------------------------------------------------------------|
|--------------------------------------------------------------------------------------------------|
|--------------------------------------------------------------------------------------------------|


  B
   T     T     T     T     T     T     T     T
|-19p11h14p11h19p11h14p11-19p11h14p11h19p11h14p11---------|
|-------------------------------------------------/12\----|
|---------------------------------------------------------|
|---------------------------------------------------------|
|---------------------------------------------------------|
|---------------------------------------------------------|


  Em                  B
    TP  TP  TP  TP      TP  TP  TP  TP
|-------------------|-------------------|
|-/12--\8--\5--/8-0-|-/12--\7--\4--/7-0-|
|-------------------|-------------------|
|-------------------|-------------------|
|-------------------|-------------------|
|-------------------|-------------------|


  Em                  B
    TP  TP  TP  TP      TP  TP  TP  TP
|-------------------|-------------------|
|-/12--\8--\5--/8-0-|-/12--\7--\4--/7-0-|
|-------------------|-------------------|
|-------------------|-------------------|
|-------------------|-------------------|
|-------------------|-------------------|


  Em                  C                    G                B
    TP  TP  TP  TP      TP  TP  TP   TP      TP  TP  TP
|-------------------|--------------------|----------------|---------|
|-/12--\8--\5--/8-0-|-/13--\8--\5--/13-0-|-/12--\8--\3----|-3tr4----|
|-------------------|--------------------|----------------|---------|
|-------------------|--------------------|----------------|---------|
|-------------------|--------------------|----------------|---------|
|-------------------|--------------------|----------------|---------|


 Verse
  N.C.
|-----|
|-----|
|-----|
|-----|
|-----|
|-----|


  Em                C                 G                 B
|-7-------7-------|-8-------8-------|-----7-------7---|-----7-------7---|
|-----8-------8---|-----8-------8---|---8---8---8---8-|---8---8---8---8-|
|---9---9---9---9-|---9---9---9---9-|-7-------7-------|-8-------8-------|
|-----------------|-----------------|-----------------|-----------------|
|-----------------|-----------------|-----------------|-----------------|
|-----------------|-----------------|-----------------|-----------------|


    Em                B                 Em                B
||--7-------7-------|-7-------7-------|-7-------7-------|-7-------7--------|
||o---8---8---8---8-|---7---7---7---7-|---8---8---8---8-|---7---7---7---7--|
||------9-------9---|-----8-------8---|-----9-------9---|-----8-------8----|
||------------------|-----------------|-----------------|------------------|
||o-----------------|-----------------|-----------------|------------------|
||------------------|-----------------|-----------------|------------------|


  Em                C                 G
|-7-------7-------|-8-------8-------|-----7-------7---|
|-----8-------8---|-----8-------8---|---8---8---8---8-|
|---9---9---9---9-|---9---9---9---9-|-7-------7-------|
|-----------------|-----------------|-----------------|
|-----------------|-----------------|-----------------|
|-----------------|-----------------|-----------------|


 1.,2.               3.
  B
                   3x
|-----7-------7----||----------------|
|---8---8---8---8-o||-4-----4-----4--|
|-8-------8--------||-4-4-4-4-4-4-4--|
|------------------||-4-4-4-4-4-4-4--|
|-----------------o||-2-2-2-2-2-2-2--|
|------------------||----------------|


   Chorus
    E5                A5
||---------0--------|------------------|
||o--------0--------|--------10--------|
||---------0--------|---------9--------|
||--2-2-2--2--(2)\--|-7-7-7---7--(7)\--|
||o-2-2-2--2--(2)\--|-7-7-7---7--(7)\--|
||--2-2-2--2--(2)\--|-7-7-7---7--(7)\--|


  D                  G5          D/F#
|------------------|--------------------------|
|------------------|--------------------------|
|--------11--------|-12-12-12-12-11-11-11-11--|
|-0-0-0---0--(0)\--|--0--0--0--0--0--0--0--0--|
|-9-9-9---9--(9)\--|-10-10-10-10--9--9--9--9--|
|-0-0-0---0--(0)\--|--------------------------|


  C/E                 Bbm6/E
|-------------------|-------------|
|------------8------|-8-8-8--8----|
|--9--9--9---9---9--|-6-6-6--6----|
|-10-10-10--10--10--|-8-8-8--8----|
|--7--7--7---7---7--|-7-7-7--7----|
|-------------------|-------------|


               1.              2.
  Em/B          B               B             G5/A
|-------------|-2-2-2--2-----||-2-2-2-2-2-2-2---|
|-5-5-5--5----|-4-4-4--4----o||-4-4-4-4-4-4-4---|
|-4-4-4--4----|-4-4-4--4-----||-4-4-4-4-4-4-4-0-|
|-5-5-5--5----|-4-4-4--4-----||-4-4-4-4-4-4-4-0-|
|-2-2-2--2----|-2-2-2--2----o||-2-2-2-2-2-2-2-0-|
|-------------|--------------||-----------------|


   Outro
    E5      G5E5G5G#5 A5      C5 A5C5 C#5
||------------------|--------------------|
||o-----------------|--------------------|
||------------------|--------------------|
||--2-2-2-2-5-2-5-6-|-7-7-7-7-10-7-10-11-|
||o-2-2-2-2-5-2-5-6-|-7-7-7-7-10-7-10-11-|
||--2-2-2-2-5-2-5-6-|-7-7-7-7-10-7-10-11-|


  D5            F5F#5 G5    D5B5 B5B5A5
|-------------------|-------------------|
|-------------------|-------------------|
|-------------------|-------------------|
|-12-0-0-12-0-0-3-4-|-5-5-5-0-/9-9-9-7--|
|-12-0-0-12-0-0-3-4-|-5-5-5-0-/9-9-9-7--|
|-12-0-0-12-0-0-3-4-|-5-5-5-0-/9-9-9-7--|


  C          Em6/Bb     Emadd9/B   B
|-0--------|-0--------|-2--------|-------||
|-1--------|-2--------|-0--------|-4----o||
|-0--------|-0--------|-0--------|-4-----||
|-2--------|-2--------|-2--------|-4-----||
|-3--------|-1--------|-2--------|-2----o||
|----------|----------|----------|-------||


  E5      G5E5G5G#5 A5      C5 A5C5 C#5  D5            F5F#5 G5    D5B5    A5
|-----------------|--------------------|-------------------|-----------------|
|-----------------|--------------------|-------------------|-----------------|
|-----------------|--------------------|-------------------|-----------------|
|-2-2-2-2-5-2-5-6-|-7-7-7-7-10-7-10-11-|-12-0-0-12-0-0-3-4-|-5-5-5-0-9-9-9-7-|
|-2-2-2-2-5-2-5-6-|-7-7-7-7-10-7-10-11-|-12-0-0-12-0-0-3-4-|-5-5-5-0-9-9-9-7-|
|-2-2-2-2-5-2-5-6-|-7-7-7-7-10-7-10-11-|-12-0-0-12-0-0-3-4-|-5-5-5-0-9-9-9-7-|


  C              Em6/Bb           Emadd9/B          B         G/D5Em
|-0------------|-0--------------|-2-2-2-2-2-2-2-2-|----------------|
|-1------------|-2--------------|-0-0-0-0-0-0-0-0-|-4-4-4-4-4-0----|
|-0---2b3r==0--|-0---2b3r===(2)-|-0-0-0-0-0-0-0-0-|-4-4-4-4-4-0----|
|-2------------|-2--------------|-2-2-2-2-2-2-2-2-|-4-4-4-4-4-0-0--|
|-3------------|-1--------------|-2-2-2-2-2-2-2-2-|-2-2-2-2-2---0--|
|--------------|----------------|-----------------|-------------0--|


  H.=H
  Em                        C
                             >
|--0----------------------|-(0)----------------------|
|--0----------------------|-(0)----------------------|
|--0----------------------|-(0)----------------------|
|--2----------------------|-(2)----------------------|
|--2----------------------|-(2)----------------------|
|--2----------------------|-(2)----------------------|
|
| (keyboard fade-out)
|  <
|-19----------19----------|-20-----------20----------|
|----20----20----20----20-|-----20----20----20----20-|
|-------21----------21----|--------21----------21----|
|-------------------------|--------------------------|
|-------------------------|--------------------------|
|-------------------------|--------------------------|
|
| 
|  <
|-------------------------|--------------------------|
|-------------------------|--------------------------|
|--------4-----------4----|---------5-----------5----|
|-----5-----5-----5-----5-|------5-----5-----5-----5-|
|--7-----------7----------|--7------------7----------|
|-------------------------|--------------------------|


                             Q=50
  G                          B
|-(0)----------------------|--(0)----*|
|-(0)----------------------|--(0)----*|
|-(0)----------------------|--(0)----*|
|-(2)----------------------|--(2)----*|
|-(2)----------------------|--(2)----*|
|-(2)----------------------|--(2)----*|
|
|-19-----------19----------|-^19-----*|
|-----20----20----20----20-|-^19-----*|
|--------19----------19----|-^20-----*|
|--------------------------|---------*|
|--------------------------|---------*|
|--------------------------|---------*|
|
|--------------------------|-^-7-----*|
|--------------------------|-^-7-----*|
|---------4-----------4----|-^-8-----*|
|------5-----5-----5-----5-|---------*|
|--5------------5----------|---------*|
|--------------------------|---------*|



***************************************************************************************
* Generated using Power Tab Editor by Brad Larsen - http://powertab.guitarnetwork.org *
***************************************************************************************
Comments