Muse - New Born Chords & Tabs

 

New Born Chords & Tabs

Muse Chords & Tabs

Version: 15 Type: Tab 0 ratings
1 star 2 stars 3 stars 4 stars 5 stars
comments

New Born Tab

   
Muse - New Born

Tuning-Drop D

Intro (Tabbed from the piano)
e|------7-------7---|------7-------8---|
B|----8---8---8---8-|----7---7---7---7-|
G|--9-------9-------|--8-------8-------| X2
D|------------------|------------------|
A|------------------|------------------|
D|------------------|------------------|

e|------7-------7---|------8---10---8---|------7-------7---|------7-------7---|
B|----8---8---8---8-|----8---8----8---8-|----8---8---8---8-|----7---7---7---7-|
G|--9-------9-------|--9----------------|--7-------7-------|--8-------8-------|
D|------------------|-------------------|------------------|------------------|
A|------------------|-------------------|------------------|------------------|
D|------------------|-------------------|------------------|------------------|

e|------7-------7---|------7-------8---|
B|----8---8---8---8-|----7---7---7---7-|
G|--9-------9-------|--8-------8-------| X2
D|------------------|------------------|
A|------------------|------------------|
D|------------------|------------------|


e|------7-------7---|------8-------8---|------7-------7---|--7---------------|
B|----8---8---8---8-|----8---8---8---8-|----8---8---8---8-|--7---------------|
G|--9-------9-------|--9-------9-------|--7-------7-------|--8---------------|
D|------------------|------------------|------------------|------------------|
A|------------------|------------------|------------------|------------------|
D|------------------|------------------|------------------|------------------|


Main Riff
e|------------------|--------------------|-------------------|------------------|
B|------------------|--------------------|-------------------|------------------|
G|------------------|--------------------|-------------------|------------------|
D|------------------|--------------------|-------------------|------------------|
A|------------------|--------------------|-------------------|------------------|
D|--2-2-2-2-5-2-5-6-|-7-7-7-7-10-7-10-11-|-12-0-0-12-0-0-3-4-|-5-5-5-5-9-9-9-9-|


e|--0---------------|--------------------|-------------------|-----------------|
B|--1---------------|--2-----------------|--0----------------|-4---------------|
G|--0---------------|--0-----------------|--0----------------|-4---------------|
D|--2---------------|--2-----------------|--2----------------|-4---------------|
A|--3---------------|--1-----------------|--2----------------|-2---------------|
D|------------------|--------------------|-------------------|-----------------|

Verse (Hopeless time to roam...)
e|--7--|--7--|--7--|--7--|--7--|--8--|--7--|--7--|
B|--8--|--7--|--8--|--7--|--8--|--8--|--8--|--7--|
G|--9--|--8--|--9--|--8--|--9--|--9--|--7--|--8--|


Chorus (Destroy the spineless...)
e|--0------|---------|---------|---------|---------|---------|---------|---------|
B|--0------|--10-----|---------|---------|--8------|--8------|--0------|--4------|
G|--0------|--9------|--11-----|--12-----|--9------|--6------|--0------|--4------|
D|--2------|--7------|--0------|--0------|--10-----|--8------|--2------|--4------|
A|--2------|--7------|--9------|--10-----|--7------|--7------|--2------|--2------|
D|--2------|--7------|--0------|--0------|---------|---------|---------|---------|

SOLO Album Version
w/Whammy
e|-----------------------------------------------------------------------|
B|-12-12-12-12-8-8-8-8-5-5-5-5-8-8-0/-12-12-12-12-7-7-7-7-4-4-4-4-7-7-0/-|
G|-----------------------------------------------------------------------|
D|-----------------------------------------------------------------------|
A|-----------------------------------------------------------------------|
E|-----------------------------------------------------------------------|
[ Tab from: http://www.guitartabs.cc/tabs/m/muse/new_born_tab_ver_15.html ]
e|-----------------------------------------------------------------------|
B|-12-12-12-12-8-8-8-8-5-5-5-5-8-8-0/-12-12-12-12-7-7-7-7-4-4-4-4-7-7-0/-|
G|-----------------------------------------------------------------------|
D|-----------------------------------------------------------------------|
A|-----------------------------------------------------------------------|
E|-----------------------------------------------------------------------|

e|-------------------------------------------------------------------------|
B|-12-12-12-12-8-8-8-8-5-5-5-5-1-1-1-1-13-13-13-13-8-8-8-8-5-5-5-5-0-0-0-0-|
G|-------------------------------------------------------------------------|
D|-------------------------------------------------------------------------|
A|-------------------------------------------------------------------------|
E|-------------------------------------------------------------------------|


e|----------------------------|----------------------------|
B|-12-12-12-12-8-8-8-8-3-3-3--|-4-4-4-4-7-7-7-7-12-12-12/\-|
G|----------------------------|----------------------------|
D|----------------------------|----------------------------|
A|----------------------------|----------------------------|
E|----------------------------|----------------------------|

e|-----------------------------------------------------------------------|
B|-12-12-12-12-8-8-8-8-5-5-5-5-8-8-0/-12-12-12-12-7-7-7-7-4-4-4-4-7-7-0/-|
G|-----------------------------------------------------------------------|
D|-----------------------------------------------------------------------|
A|-----------------------------------------------------------------------|
E|-----------------------------------------------------------------------|

e|----------------------------------------------------------------------|
B|-12/\8-8-8-8-5-5-5-5-8-8-8-8-12-12-12-12-7-7-7-7-4-4-4-4-7-7-7-7-0/---|
G|----------------------------------------------------------------------|
D|----------------------------------------------------------------------|
A|----------------------------------------------------------------------|
D|----------------------------------------------------------------------|

e|----------------------------------------------------------------------|
B|-12/\-8/\-5-5-5-5-12-12-12-12-13-13-13-13-8-8-8-8-5-5-5-5-13-13-13-13-|
G|----------------------------------------------------------------------|
D|----------------------------------------------------------------------|
A|----------------------------------------------------------------------|
D|----------------------------------------------------------------------|

e|------------------------------------|
B|--12-12-12-12-8-8-8-8-3----4--------|
G|------------------------------------|
D|------------------------------------|
A|------------------------------------|
D|------------------------------------|

SOLO Live Version
w/Whammy
Play each for a bar
e|-----------|-----------|-----------|-----------|
B|--t12p9h5--|--t12p4h7--|--t12p9h5--|--t12p4h7--|
G|-----------|-----------|-----------|-----------|
D|-----------|-----------|-----------|-----------|
A|-----------|-----------|-----------|-----------|
D|-----------|-----------|-----------|-----------|

e|-----------|-----------|-----------|-----------|
B|--t12p5h8--|--t13p5h8--|--t12p3h7--|--t12p5h8--|
G|-----------|-----------|-----------|-----------|
D|-----------|-----------|-----------|-----------|
A|-----------|-----------|-----------|-----------|
D|-----------|-----------|-----------|-----------|

Now you can either go to the second part of the normal solo or do this little shred thing
that Ive seen Matt do. Check out the Muse website if you wanna see it.

w/Whammy
e|-20-19-17-19-17-15-17-15-14-15-14-12-14-12-11-| 
B|----------------------------------------------|
G|----------------------------------------------|
D|----------------------------------------------| x2
A|----------------------------------------------|
D|----------------------------------------------|

Then just randomly hit any note on the high E string, go mental.

Repeat Verse, Chorus then Main Riff.
Comments