Muse - New Born Chords & Tabs

 

New Born Chords & Tabs

Muse Chords & Tabs

Version: 11 Type: Tab 0 ratings
1 star 2 stars 3 stars 4 stars 5 stars
comments

New Born Tab

hi this should be right(tuning- DROP D)
------------------------------------------------------------
------------------------------------------------------------
------------------------------------------------------------
------------------------------------------------------------
------------------------------------------------------------
2-2-2-2-5-2-5-6-7-7-7-7-10-7-10-11-12-0-0-12-0-0-3-4-5-5-5-5
[ Tab from: http://www.guitartabs.cc/tabs/m/muse/new_born_tab_ver_11.html ]
--------0-0-0-0-0-0-0-0--0-0-0-0-0-0-0-0--2-2-2-2-2-2-2-2--
--------1-1-1-1-1-1-1-1--2-2-2-2-2-2-2-2--0-0-0-0-0-0-0-0--
--------0-0-0-0-0-0-0-0--0-0-0-0-0-0-0-0--0-0-0-0-0-0-0-0--
--------2-2-2-2-2-2-2-2--2-2-2-2-2-2-2-2--2-2-2-2-2-2-2-2--
--------3-3-3-3-3-3-3-3--1-1-1-1-1-1-1-1--2-2-2-2-2-2-2-2--
9-9-9-9----------------------------------------------------

-2-2-2-2-2-2-2-2
-4-4-4-4-4-4-4-4
-4-4-4-4-4-4-4-4
-4-4-4-4-4-4-4-4
-2-2-2-2-2-2-2-2
----------------
Hope its right
Comments