Muse - New Born Chords & Tabs

 

New Born Chords & Tabs

Muse Chords & Tabs

Version: 10 Type: Tab 0 ratings
1 star 2 stars 3 stars 4 stars 5 stars
comments

New Born Tab

   
Artist: Muse
Song: New Born
Author: Matthew Bailey

WARNING:Put this onto word to make it smaller so it will work!
INTRO:
DROP D

e-------7-------7-------7-------7-------7------7-------7-------7---
B-----8---8---8---8---7---7---7---7---8---8--8---8---7---7---7---7-
G---9-------9-------8-------8-------9------9-------8-------8-------
D------------------------------------------------------------------
A------------------------------------------------------------------
D------------------------------------------------------------------


e-------7------7-------8-------8-------7-------7-------7------7----
B-----8---8--8---8---8---8---8---8---8---8---8---8---7---7--7---7--
G---9------9-------9-------9-------7-------7-------8------8--------
D------------------------------------------------------------------
A------------------------------------------------------------------
D------------------------------------------------------------------

REPEAT THIS A FEW TIMES THEN STRUM THE LAST BIT, THEN GO INTO MAIN
RIFF

RIFF:
REPEAT X3
e------------------------------------------------------------------
B------------------------------------------------------------------
G------------------------------------------------------------------
D------------------------------------------------------------------
A--------------------------0--0--0--0--3--0--3--4--5--------5------
D--2--2--2--2--5--2--5--6-----------------------------0--0----0--0-


e------------------------------------------------------------------
B------------------------------------------------------------------
G------------------------------------------------------------------
D--------------------------------2--2--2--2--2--2--2--2--2--2--2--2
A--------------------2--2--2--2--3--3--3--3--3--3--3--3--1--1--1--1
D--3--4--5--5--5--5------------------------------------------------


e------------------------------------------------------------------
B------------------------------------------------------------------
G------------------------------------------------------------------
D--2--2--2--2--2--2--2--2--2--2--2--2--4--4--4--4--4--4--4--4------
A--1--1--1--1--2--2--2--2--2--2--2--2--4--4--4--4--4--4--4--4------
D------------------------------------------------------------------

BASS PART:
REPEAT X4
G--------------
D-----2--------
A--------0--1--
D--2-----------


CHORUS:
REPEAT X4
e--12--12--12--12--7--7--7--7--12--12--12--12--7--7--7--7---------
B--12--12--12--12--7--7--7--7--12--12--12--12--7--7--7--7---------
G--12--12--12--12--8--8--8--8--12--12--12--12--8--8--8--8---------
D-----------------------------------------------------------------
A-----------------------------------------------------------------
D-----------------------------------------------------------------

[ Tab from: http://www.guitartabs.cc/tabs/m/muse/new_born_tab_ver_10.html ]
e--12--12--12--12--12--12--12--12--12--12--12--12--7--7--7--7-----
B--12--12--12--12--13--13--13--13--12--12--12--12--7--7--7--7-----
G--12--12--12--12--12--12--12--12--12--12--12--12--8--8--8--8-----
D-----------------------------------------------------------------
A-----------------------------------------------------------------
D-----------------------------------------------------------------

THEN PLAY THIS X2 :
e-----------------------------------------------2--2--2--2------------
B--------1--------------------------------------0--0--0--0------------
G--------2--2-----------------------------------2--2--2--2------------
D--------2--2--7--7/----12--12--12--5--5--5--5--1--1--1--1------------
A--------------5--5/----10--10--10--3--3--3--3-------------2--2--2--2-
D--2--5---------------------------------------------------------------

e---------------------------------------------------------------
B---------------------------------------------------------------
G---------------------------------------------------------------
D---------------------------------------------------------------
A--4--4--4--4---------------------------------------------------
D---------------<3>--<3>--<3>--<3>--<3>--<3>--<3>--<3>----------

e---------------------------------------------------------------
B---------------------------------------------------------------
G---------------------------------------------------------------
D---------------------------------------------------------------
A---------------------------------------------------------------
D--<2.5>--<2.5>--<2.5>--<2.5>--<2.5>--<2.5>--<2.5>--<2.5>-------

e---------------------------------------------------------------
B---------------------------------------------------------------
G---------------------------------------------------------------
D---------------------------------------------------------------
A---------------------------------------------------------------
D--<2>--<2>--<2>--<2>--<2>--<2>--<2>--<2>--<1.5>--<1.5>--<1.5>--

e---------------------------------------------------------------
B---------------------------------------------------------------
G---------------------------------------------------------------
D---------------------------------------------------------------
A---------------------------------------------------------------
D--<1.5>--<1.5>--<1.5>--<1.5>--<1.5>----------------------------

SOLO:
PLAY THE SOLO WITH FAST TREMLO PICKING

e--19--15--12--15--11---19--14--11--14--10---19--15--12--15--11-
B--//--//--//--//--//---//--//--//--//--//---//--//--//--//--//-
G---------------------------------------------------------------
D---------------------------------------------------------------
A---------------------------------------------------------------
D---------------------------------------------------------------

e--19--14--11--14--10---19--15--12--19--20--15--12--20--19--15--
B--//--//--//--//--//---//--//--//--//--//--//--//--//--//--//--
G---------------------------------------------------------------
D---------------------------------------------------------------
A---------------------------------------------------------------
D---------------------------------------------------------------

e------------
B--15--16^---
G--//--//----
D------------
A------------
D------------

AFTER THE SOLO GO BACK TO THE CHORUS AND PLAY THE WHOLE THING
ALL THE WAY THROUGH BUT WHEN YOU GET TO THE SOLO PART PLAY THE
MAIN RIFF UNTIL THE END.
Comments