Muse - New Born Chords & Tabs

 

New Born Chords & Tabs

Muse Chords & Tabs

Version: 1 Type: Tab 0 ratings
1 star 2 stars 3 stars 4 stars 5 stars
comments

New Born Tab

#----------------------------------PLEASE NOTE--------------------------------#
#This file is the author's own work and represents their interpretation of the#
#song. You may only use this file for private study, scholarship, or research.#
#-----------------------------------------------------------------------------#
# 			     File created with Instab  			      #
#-----------------------------------------------------------------------------#

Author/Artist: Muse
Title: New Born
Album: Origin of Symmetry
Transcribed by: Jonathon Halliwell a.k.a baz
Email: jonathon_halliwell@hotmail.com


This is the distorted part, after the piano finishes and the song kicks in:
E|-----------------|-----------------|------------------|-----------------|
B|-----------------|-----------------|------------------|-----------------|
G|-----------------|-----------------|------------------|-----------------|
D|-----------------|-----------------|------------------|-----------------|
A|-----------------|-----------------|------------------|-----------------|
E|-0-0-0-0-3-0-3-3-|-5-5-5-5-8-5-8-8-|-10-0-0-10-0-0-10-|-3-3-3-3-7-7-7-7-|
                                                                              
[ Tab from: http://www.guitartabs.cc/tabs/m/muse/new_born_tab.html ]
E|-----------------|-----------------|------------------|
B|-----------------|-----------------|------------------|
G|-----------------|-----------------|------------------|
D|-10--------------|-8---------------|-9------9---------|
A|-10-X8-----------|-8-X8------------|-9-X8---9-X8------|
E|-8---------------|-6---------------|-7------7---------|
                                                                              

The drums and bass now start and the single notes change into power chords:
E|-----------------|--------------------|------------------|-----------------|
B|-----------------|--------------------|------------------|-----------------|
D|-----------------|--------------------|------------------|-----------------|
G|-----------------|--------------------|------------------|-----------------|
A|-2-2-2-2-5-2-5-5-|-7-7-7-7-10-7-10-10-|-12-----12-----12-|-5-5-5-5-9-9-9-9-|
E|-0-0-0-0-3-0-3-3-|-5-5-5-5-8--5-8--8--|-10-0-0-10-0-0-10-|-3-3-3-3-7-7-7-7-|
                                                                              

E|-----------------|-----------------|------------------|
B|-----------------|-----------------|------------------|
D|-----------------|-----------------|------------------|
G|-10--------------|-8---------------|-9-XXX-9----------|
A|-10--------------|-8---------------|-9-XXX-9----------|
E|-8---------------|-6---------------|-7-XXX-7----------|
                                                                              

The rest of the song will be completed soon...
Comments