Muse - New Born Chords & Tabs

 

New Born Chords & Tabs

Muse Chords & Tabs

Version: 4 Type: Bass Tab 0 ratings
1 star 2 stars 3 stars 4 stars 5 stars
comments

New Born Bass Tab

   
#1
Main riff:

G---9-----
D-----7-9- x8 or x10
A-7-------
E---------

G---5-------5-------4-------4-------8-------8---------|
D-----3-5-----3-5-----3-5-----3-5-----7-9-----7-9-----|
A-3-------3-------2-------2-------6-------6-------6---|
E-----------------------------------------------------|

#2
Guitar solo finished with bass:

G----------------------------------
D----------------------------------
A-33333333111111112222222222222222-
E----------------------------------

#3
Guitar solo with bass:
[ Tab from: http://www.guitartabs.cc/tabs/m/muse/new_born_btab_ver_4.html ]
G--------------------------------------------------------------------|(for
D-----------------00000----------------------------------------------| the
A---------00003034------------2222-33333333111111112222222222222222--| end
E-00003034-------------0123333---------------------------------------| -0-)

#4


G--------------------------------------------------|
D-------------000----------------------------------|
A-------000-3-----------2-333-3-111-1-222-2-222-2--|
E-000-3-----------2-333----------------------------|

#5

G----------------|
D----------------|
A----------------|
E-0000000000000--|

ORDER :

#1
#2
#3 x2
#1 x a lot
#4 x2
#5 
#1 x a lot
#4 x2
#3 x3

It's my first tab and I think it's sounds right, try it and rate it please !! thanks
Comments