Muse - New Born Chords & Tabs

 

New Born Chords & Tabs

Muse Chords & Tabs

Version: 1 Type: Bass Tab 1 rating
1 star 2 stars 3 stars 4 stars 5 stars
comments

New Born Bass Tab

   
#----------------------------------PLEASE NOTE---------------------------------#
#This file is the author's own work and represents their interpretation of the #
#song. You may only use this file for private study, scholarship, or research. #
#------------------------------------------------------------------------------#


Muse - New Born Bass Tab

Dropped D Tuning

Tabbed by Iain Irvine

Riff 1

G|----9--------9-----
D|------7-9------7-9- X 5
A|--7--------7-------
D|-------------------

Then


G|----5--------5--------4-------4-------9-------9-----
D|------3-5------3-5------2-4-----2-4-----7-9-----7-9-
A|--3-------3--------2--------2-------7--------7------
D|----------------------------------------------------

Do all this once for the intro then 4 times for the first verse before

Riff 2

G|----------------------------------------------------------------------
D|----------------------------------------------------------------------
A|----------------------------------------------------------------------
D|-2-2-2-2-5-2-5-6-7-7-7-7-10-7-10-11-12-0-0-0-12-0-3-4-5-5-5-5-9-9-9-9-

[ Tab from: http://www.guitartabs.cc/tabs/m/muse/new_born_btab.html ]
G|------------------------------------------------------------------------
D|------------------------------------------------------------------------
A|------------------------------------------------------------------------
D|-10-10-10-10-10-10-10-10-8-8-8-8-8-8-8-8-9-9-9-9-9-9-9-9-9-9-9-9-9-9-9-9

Do Riff 2 Twice then Back to Riff 1 for the Second Verse 

Riff 3 

This is played in the chorus bit

This Riff is just the Root notes from riff 2 slowed down a bit

The notes are

(low)D|-2-7-12-5-9-10-8-9-

You can work out how many times to play each one

Then 

Riff 4

G|-------------------------------------------------------------------
D|-------------------------------------------------------------------
A|-------------------------------------------------------------------
D|-0-0-0-0-0-0-0-0-0-0-0-0-0-0-0-0-0-0-0-0-0-0-0-0-0-0-0-0-0-0-0-0-0-

This is played before the solo

Riff 1 is played behind the solo and verse 3

Then Riff 3 twice and Riff 2 4 or so times for the outro 
and i think it ends on E (not sure though)

Changes Corrections to murv_69@hotmail.com
Comments