Muse - New Born Awesome Chords & Tabs

 

New Born Awesome Chords & Tabs

Muse Chords & Tabs

Version: 1 Type: Tab 3 ratings
1 star 2 stars 3 stars 4 stars 5 stars
comments

New Born Awesome Tab

this is very easy but quite fast!


E-|------7-------7-------7-------7---|-----7-------7-------7-------7---|
B-|----8---8---8---8---7---7---7---7-|---8---8---8---8---7---7---7---7-|
G-|--9-------9-------8-------8-------|-9-------9-------8-------8-------|
D-|----------------------------------|---------------------------------|
A-|----------------------------------|---------------------------------|
D-|----------------------------------|---------------------------------|

E-|------7-------7-------8-------8---|-----7-------7-------7-------7---|
B-|----8---8---8---8---8---8---8---8-|---8---8---8---8---7---7---7---7-|
G-|--9-------9-------9-------9-------|-7-------7-------8-------8-------|
D-|----------------------------------|---------------------------------|
A-|----------------------------------|---------------------------------|
D-|----------------------------------|---------------------------------|


Riff 2:

E-|------7-------7-------7-------7---|-----7-------7-------7-------7---|
B-|----8---8---8---8---7---7---7---7-|---8---8---8---8---7---7---7---7-|
G-|--9-------9-------8-------8-------|-9-------9-------8-------8-------|
D-|----------------------------------|---------------------------------|
A-|----------------------------------|---------------------------------|
D-|----------------------------------|---------------------------------|
[ Tab from: http://www.guitartabs.cc/tabs/m/muse/new_born_awesome_tab.html ]
E-|------7-------7-------8-------8---|-----7-------7---7---------------|
B-|----8---8---8---8---8---8---8---8-|---8---8---8---8-7---------------|
G-|--9-------9-------9-------9-------|-7-------7-------8---------------|
D-|----------------------------------|---------------------------------|
A-|----------------------------------|---------------------------------|
D-|----------------------------------|---------------------------------|


Riff 3:

guitar solo :

E-|---------------------|----------------------|---------------------|
B-|---------------------|----------------------|---------------------|
G-|---------------------|----------------------|---------------------|
D-|---------------------|----------------------|---0-0-0-0-0-0-------|
A-|---------------------|---0-0-0-0-3-0-3-4----|---------------------|
E-|--0-0-0-0-3-0-3-4----|----------------------|---------------0-2---|

E-|---------------------|----------------------|---------------------|
B-|---------------------|----------------------|---------------------|
G-|---------------------|----------------------|---------------------|
D-|---------------------|----------------------|---------------------|
A-|-----------2-2-2-2---|---3-3-3-3-3-3-3-3----|---1-1-1-1-1-1-1-1---|
E-|--3-3-3-3------------|----------------------|---------------------|

E-|---------------------|----------------------|---------------------|
B-|---------------------|----------------------|---------------------|
G-|---------------------|----------------------|---------------------|
D-|---------------------|---4-4-4-4-4-4-4-4----|---------------------|
A-|--2-2-2-2-2-2-2-2----|---2-2-2-2-2-2-2-2----|--2------------------|
E-|---------------------|----------------------|--0------------------|
Comments