Muse - Nature 1 (correct) Chords & Tabs

 

Nature 1 (correct) Chords & Tabs

Muse Chords & Tabs

Version: 1 Type: Tab 0 ratings
1 star 2 stars 3 stars 4 stars 5 stars
comments

Nature 1 (correct) Tab

   
Standard Tuning EADGBe

There is a tablature on this site which is fairly incorrect and 
i believe this interpreation sounds more accurate so hope it helps.


Rythym guitar is acoustic throughout song

Intro/Verse
Strum (Listen for timing)
Its fiddly to play in time until u get the right fingering for it.
|------------------------|
|----5--5--5-5-5-5--5--5-|
|----6--6--6-5-6-7--7--7-|
|----7--7--7-7-7-8--8--8-|
|------------------------|
|------------------------|

Second Guitar kicks in halfway through intro (electric)
Double pick the notes.
|----------------------------------|
|----------------------------------|
|----------------------------------|
|----------------------------------|
|--0---1---4---5---7-5-4-1-0---1---|
|----------------------------------|
[ Tab from: http://www.guitartabs.cc/tabs/m/muse/nature_1_correct_tab.html ]
Bridge
Power Chords, not Barre.
  F#                        G 
|----------------------------------------------------|
|----------------------------------------------------|
|----------------------------------------------------|
|-4-4--4-4--4-4--4-4--4--4--5-5--5-5--5-5--5-5--5--5-|
|-4-4--4-4--4-4--4-4--4--4--5-5--5-5--5-5--5-5--5--5-|
|-2-2--2-2--2-2--2-2--2--2--3-3--3-3--3-3--3-3--3--3-|

Chorus (Listen for fast strumming)
Add Major/Minor 3rds
|------------------|
|---------3--------|
|-3---3---4----3---|
|-4---4---4----5---|
|-4---4---2----5---|
|-2---2--------3---|

After final Chorus (Electric guitar plays Bass line)
|-------------------------|
|-------------------------|
|-------------------------|
|-------------------------|
|-------3---3------1---1--|
|---5-5---5----3-3---3----|x4

Halfway thru this comes
Double Pick notes
|--------------------------------------|
|--------------------------------------|
|--------------------------------------|
|--------------------------------------|
|--4--5--7--8-7-5-7-5-4-5-4------------|
|--------------------------6-5--6-3-6--|

Outro
|---------------------------|
|--5-5--5-5--5-5--5-5-6--6--|
|--6-6--6-6--6-6--6-6-7--7--|
|--7-7--7-7--7-7--7-7-8--8--|
|---------------------------|
|---------------------------|

Enjoy
Comments