Muse - Muscle Museum Chords & Tabs

 

Muscle Museum Chords & Tabs

Muse Chords & Tabs

Version: 5 Type: Tab 0 ratings
1 star 2 stars 3 stars 4 stars 5 stars
comments

Muscle Museum Tab

   
muse, muscle museum.
Tabbed by gary, jubilee2@bolt.com.
  
Intro: 


         (F#m)                        (C#)
b--10-10-10-10-10--14-14-14-12-10-10\-9---9--9
g--11-11-11-11-11--14-14-14-13-11-11\10-10-10
                            (F#m)                        (Bm)
b--12-12-10--9--9/10----14-14-14-14-14-15-15-15-
g--13-13-11-10-10/11---14-14-14-15-15-16-16-16-



Verse:   

BASS

G----------------------------
D----------------------------9-12-9---------
A-9-9-9-9--4-4-4-4--9-9-9-9--------9--------7-10-9--9----
E--9-9-9-9--4-4-4-4--9-9-9-9---------10-7-10-------9--etc.--




bit before Chorus: 
[ Tab from: http://www.guitartabs.cc/tabs/m/muse/muscle_museum_tab_ver_5.html ]
e--2------2---2--5-2-----------------4-------1---1--4-1-------------------------------------- 
b--2-------2-2-2----2----------------6--------2-2-2----2------------------------------------ 
g--2---------------------------------6--------------------------------------------- 
d--4---------------------------------6--------------------------------------------- 
a--4---------------------------------4----------------------------12-12-12-12 
e--2---------------------------------4----------------------------10-10-10-10  
    

Chorus:

F#m C# F#m Bm x2

E C#



lyrics
she had something to confess to 
but you donít have the time so look the other way
you will wait untill its over 
to reveal waht youíve never shown her
too little much to late

too long trying to resist it
youíve just gone and missed it
its escaped your world

can you see that i am needing and begging for so much more
than you could ever give
i donít want you to adore me 
donít want you to ignore me
when it pleases you
iíll do it on my own

I have played in every toilet
but you still want to spoil it 
to prove iíve made a big mistake

too long trying to resist it
youíve just gone and missed it
its escaped your world

can you see that i am needing and begging for so much more
than you could ever give
i donít want you to adore me
donít want you to ignore me
when it please you
iíll do it on my own
iíll do it on my own
 
 
:: Ultimate Guitar Archive :: 
http://www.ultimate-guitar.com
Comments