Muse - Muscle Museum Chords & Tabs

 

Muscle Museum Chords & Tabs

Muse Chords & Tabs

Version: 3 Type: Tab 2 ratings
1 star 2 stars 3 stars 4 stars 5 stars
comments

Muscle Museum Tab

   
#----------------------------------PLEASE NOTE---------------------------------#
#This file is the author's own work and represents their interpretation of the-#
#song. You may only use this file for private study, scholarship, or research.-#
#---------------This file was downloaded from www.taborama.com-----------------#
#---This tab was created using Tabber software from www.darkdayssoftware.com---#
#------------------------------------------------------------------------------#


Title: Muscle Museum
Artist: Muse
Album: Showbiz

Instrument: 6 String Guitar

Tabbed by: Carl Harrison (carl@harrisoncarl.wanadoo.co.uk)

Notes:
Fantastic song, quite tricky to get rhythmically, but with a little practise.............

Main riff

E |-5-5-5-5-5-5-5-5-|--9--9--9-7-7-7-5-5-||
B |-7-7-7-7-7-7-7-7-|-10-10-10-9-9-9-7-7-||
G |-----------------|--------------------||
D |-----------------|--------------------||
A |-----------------|--------------------||
E |-----------------|--------------------||

E |-4-4-4-4-4-4-4-4-|-7-7-7-5-5-5-4-4-||
B |-6-6-6-6-6-6-6-6-|-9-9-9-7-7-7-6-6-||
G |-----------------|-----------------||
D |-----------------|-----------------||
A |-----------------|-----------------||
E |-----------------|-----------------|| 

E |-5-5-5-5-5-5-5-5-|--9--9--9--9--9--9-||
B |-7-7-7-7-7-7-7-7-|-10-10-10-11-11-11-||
G |-----------------|-------------------||
D |-----------------|-------------------||
A |-----------------|-------------------||
E |-----------------|-------------------||

E |--9--9--9--9--9--9--9--9-|-7-7-7-5-5-5-4-4-5-||
B |-12-12-12-12-12-12-12-12-|-9-9-9-7-7-7-6-6-7-||
G |-------------------------|-------------------||
D |-------------------------|-------------------||
A |-------------------------|-------------------||
E |-------------------------|-------------------|| 

1st verse has no guitar

Pre chorus
(with heavy distortion)
E |--------------------------|---------------------||
B |------7----7---7----7---7-|------6----6---6---6-||
G |---------6---6---6----6---|-6-6-------6---6---6-||
D |-4-4----------------------|-6-6-----------------||
A |-4-4----------------------|-4-4-----------------||
E |-2-2----------------------|---------------------||

Build up....
Guitar 1
E |-----------------|-----------------||
B |-----------------|-----------------||
G |-7-7-7-7-7-7-7-7-|-7-7-7-7-7-7-7-7-||
D |-7-7-7-7-7-7-7-7-|-7-7-7-7-7-7-7-7-||
A |-5-5-5-5-5-5-5-5-|-5-5-5-5-5-5-5-5-||
E |-----------------|-----------------||

Guitar 2 (over dubbed)
E |-----------------|------------------||
B |-7-7-7-7-7-7-7-7-|-9-9-9-9-10-10-10-||
G |-7-7-7-7-7-7-7-7-|-7-7-7-7--7-7-7-7-||
D |-0-0-0-0-0-0-0-0-|-0-0-0-0--0-0-0-0-||
A |-----------------|------------------||
E |-----------------|------------------|| 

Chorus
E |------------------|------------------||
B |------------------|------------------||
G |------------------|------------------|| x2 then....
D |-4-4-4-4--6-6-6-6-|-4-4-4-4--2-2-2-2-||
A |-4-4-4-4--4-4-4-4-|-4-4-4-4--2-2-2-2-||
E |-2-2-2-2----------|-2-2-2-2----------|| 
[ Tab from: http://www.guitartabs.cc/tabs/m/muse/muscle_museum_tab_ver_3.html ]
let each chord ring
E |----------------|----------------||
B |----------------|----------------||
G |----------------|----------------||
D |-2-----3--------|-4--------------||
A |-2-----3--------|-4--------------||
E |-0-----1--------|-2--------------|| 

Bass

E |-5-5-5-5-5-5-5-5-|--9--9--9-7-7-7-5-5-||
B |-7-7-7-7-7-7-7-7-|-10-10-10-9-9-9-7-7-||
G |-----------------|--------------------||
D |-----------------|--------------------||
A |-----------------|--------------------||
E |-----------------|--------------------||

E |-4-4-4-4-4-4-4-4-|-7-7-7-5-5-5-4-4-||
B |-6-6-6-6-6-6-6-6-|-9-9-9-7-7-7-6-6-||
G |-----------------|-----------------||
D |-----------------|-----------------||
A |-----------------|-----------------||
E |-----------------|-----------------|| 

E |-5-5-5-5-5-5-5-5-|--9--9--9--9--9--9-||
B |-7-7-7-7-7-7-7-7-|-10-10-10-11-11-11-||
G |-----------------|-------------------||
D |-----------------|-------------------||
A |-----------------|-------------------||
E |-----------------|-------------------||

E |--9----------------------|
B |-12----------------------|
G |-------------------------|
D |-------------------------|
A |-------------------------|
E |-------------------------| 


Verse 2
little verse riff
E |----------------|
B |----------------|
G |-------6^(7)6---|
D |-----6----------|
A |-4-7------------|
E |----------------| 

PM......................................
E |-----------------|------------------|
B |-----------------|------------------|
G |-----2-2-----2-2-|-----2-2-----2-2--|
D |-----------------|------------------|
A |-4-4-----4-4-----|-4-4-----4-4------|
E |-----------------|------------------| 
PM......................................
E |-----------------|------------------|
B |-----------------|------------------|
G |-1-1-----1-1-----|--1-1-----1-1-----|
D |-----3-3-----3-3-|------3-3-----3-3-|
A |-----------------|------------------|
E |-----------------|------------------| 
PM.....................................
E |-----------------|------------------|
B |-----------------|------------------|
G |-----2-2-----2-2-|-4----------------|
D |-----------------|-4----------------|
A |-4-4-----4-4-----|-2----------------|
E |-----------------|------------------| 

Over dubbed guitar 
E |-------------------|
B |-------------------|
G |-6h7p6h7p6h7p6h7p6-|
D |-------------------|
A |-------------------|
E |-------------------| 

Pre chorus 

Chorus 

Solo 
(With overdrive and plenty of feedback) 
E |-----------------|-10-9-10p9----9-9-7-5-7-|
B |-7/5----5-5/6----|-----------12-----------|
G |--------------6--|------------------------|
D |-----------------|------------------------|
A |-----------------|------------------------|
E |-----------------|------------------------|  

E |-7---------------|------10p9----9-9-7-5-7-|
B |--------5-5/6----|-----------12-----------|
G |--------------6--|------------------------|
D |-----------------|------------------------|
A |-----------------|------------------------|
E |-----------------|------------------------| 

E |-9-----9-9-10p9----|-9----------------|
B |----------------12-|------------------|
G |-------------------|------------------|
D |-------------------|------------------|
A |-------------------|------------------|
E |-------------------|------------------|  

Piano Outro   



 


Comments