Muse - Muscle Museum Chords & Tabs

 

Muscle Museum Chords & Tabs

Muse Chords & Tabs

Version: 2 Type: Tab 1 rating
1 star 2 stars 3 stars 4 stars 5 stars
comments

Muscle Museum Tab

Muse - Muscle Museum

This is my version and it works
I'm no Beethoven, so work out the timing yourself
Question mark means hit lots of times, you work it out ;o)

rmcomins@hotmail.com

Beginning and Verses:-

Bass
E-----------------------------------------------------------------
B-----------------------------------------------2-3---------------
G---------------------------------------------------4-------------
D-4---4---4---4-------------------4---4---4---4-------4-0---0-2-3-
A---4---4---4---4-4---4---4---4-----4---4---4-------------2-------
E-------------------4---4---4---4---------------------------------
[ Tab from: http://www.guitartabs.cc/tabs/m/muse/muscle_museum_tab_ver_2.html ]
Guitar (Really keyboard)
E---------9-9-9-7-7-7------------------------7-7-7-------------------------------9-9-9-10x?-
B-7777777-------------10-10-10-10-10-7-9-9-9-------10-10-10-9-9-9-9-7-9-10-10-10------------


The Bit Before/And Chorus:-

E-------2---2---2---------------------------------------------------------------------------
B---------2---2---2-------6---6---6---------------------------------------------------------
G---------------------------6---6---6-------------------------------------------------------
D-------------------6-6-6-------------7x?-------------6-6---6-6---------------4-4---4-------
A-4-4-4-------------4-4-4-------------5x?-4-4---4-4---4-4---4-4---4-4---4-4---2-2---2-2-0---
E-2-2-2-----------------------------------2-2---2-2---------------2-2---2-2-------------4-2-


"Yeah, and I'll do it on my own" is E then F

The solo at the end I haven't worked out (lots of bending on the B string 14th fret)
Comments