Muse - Muscle Museum Chords & Tabs

 

Muscle Museum Chords & Tabs

Muse Chords & Tabs

Version: 1 Type: Tab 2 ratings
1 star 2 stars 3 stars 4 stars 5 stars
comments

Muscle Museum Tab

   
Song: 'Muscle museum' 
Artist: MUSE
Transcribed by: Dave - dave@mckechan.co.uk
Notes: This song is in the key of F# minor and uses the melodic minor scale. I am writing all this down from memory so some parts may be dodgy. I have not worked all of the song out yet but there is enough to play around with. please email me comments, corrections etc.

5h7 - hammer on
7p5 - pull off 
~~~~~ - tremolo
PM-------| - Palm muted

fig1 (intro)

Unsure of notes on b string , leave them out if they don't work!  

E -12-12-12-12-12-12-12-12-15-15-14-----12-14-12-11-11-11-11-11-11-11-11-14-14-12-
B-13-13-13-13-13-13-13-13-17-17-15------13-15-13---12-12-12-12-12-12-12-12-15-15-13-

E-11-12-11---12-12-12-12-12-12-12-12-15-15-15-15-16-16-16-16-17-17-17-17---
B-12-13-12---13-13-13-13-13-13-13-13-17-17-17-17-17-17-17-17-17-17-17-17---




fig2 (verse) 

PM----------------------------------------------------------------------------------------------------------------

D-7-7----7-7------7-7-------7-7------6-6------6-6------6-6------6-6-------7-7----7-7------7-7-------7-7------
A ----9-9-----9-9-------9-9------9-9------8-8------8-8------8-8-------8-8------9-9-----9-9-------9-9------9-9

------------------------------------------------|

D-9-9--------9-9---------9-9---------9-9-------
A-----11-11------11-11------11-11-----11-11

[ Tab from: http://www.guitartabs.cc/tabs/m/muse/muscle_museum_tab.html ]
On one occasion this is played over fig2

G--6h7p6h7p6h7--


fig.3 (bridge)

E--2-2-2--------------------------------------
B--2-2-2--6-7--6-7-6--7-6--------6-7--6-7-----
G--2-2-2------------------6-6-6-----------6~~-
D--4-4-4------------------6-6-6---------------
A--4-4-4------------------4-4-4---------------
E--2-2-4--------------------------------------

PM -------------------------------|

E---------------------------------
B---------------------------------
G-7-7-7-7-7-7-7-7-7-7-7-7-7-7-7-7-
D-7-7-7-7-7-7-7-7-7-7-7-7-7-7-7-7-
A-5-5-5-5-5-5-5-5-5-5-5-5-5-5-5-5-
E---------------------------------

E---------------------------------
B---------------------------------
G-7-7-7-7-7-7-7-7-7-7-7-7-7-7-7-7-
D-7-7-7-7-7-7-7-7-7-7-7-7-7-7-7-7-
A-5-5-5-5-5-5-5-5-5-5-5-5-5-5-5-5-
E---------------------------------

fig 4 (chorus)


E|--2-2-----2-----4-4-----4-----2-2----2-----2-2----2------|
B|--2---2-----2---5---5-----5---2---2----2---3---3----3----|
G|0-2-----2-----2-6-----6-----6-2-----2----2-4-----4----4-0|
D|0-4-------------6-------------4------------4------------0|
A|--4-------------4-------------4------------2-------------|
E|--2---------------------------2--------------------------|

aftre the second time through play an E minor chord before the big end

Cheers Dave
Comments