Muse - Minimum Chords & Tabs

 

Minimum Chords & Tabs

Muse Chords & Tabs

Version: 2 Type: Tab 0 ratings
1 star 2 stars 3 stars 4 stars 5 stars
comments

Minimum Tab

This is quite a good song and is quite an old(ish) b-side and so i cant believe that
there's not a tab for this yet (although there probably is i just havn't looked properly)
Anywayz, here it is, if you have any probs or questions or watever email me in_your_world@hotmail.co.uk

Tuning: Standard

Main riff:
--------10-----10---|---------12-----12---|
------0------0------|-------0------0------|
11-11-----11-----11-|-12-12-----12-----12-|
--------------------|---------------------|
--------------------|---------------------|
--------------------|---------------------|

---------12-----12---|---------14-----14----|
-------0------0------|-------0------0-------|
-13-13-----13-----13-|-14-14-----14-----14--|
---------------------|----------------------|
---------------------|----------------------|
---------------------|----------------------|

 --------12-----12---|---------12-----12----|
 ------0------0------|-------0------0-------|
 13-13-----13-----13-|-12-12-----12-----12--|
 --------------------|----------------------|
 --------------------|----------------------|
 --------------------|----------------------| repeat 3 times
[ Tab from: http://www.guitartabs.cc/tabs/m/muse/minimum_tab_ver_2.html ]
--------10-----10---|---------12-----12---|
------0------0------|-------0------0------|
11-11-----11-----11-|-12-12-----12-----12-|
--------------------|---------------------|
--------------------|---------------------|
--------------------|---------------------|

---------12-----12---|---------14-----14----|
-------0------0------|-------0------0-------|
-13-13-----13-----13-|-14-14-----14-----14--|
---------------------|----------------------|
---------------------|----------------------|
---------------------|----------------------|

 --------12-----12---|-12-------------------|
 ------0------0------|--0-------------------|
 13-13-----13-----13-|-12-------------------|
 --------------------|----------------------|
 --------------------|----------------------|
 --------------------|----------------------|

Chorus (repeat a few times)
------------|-------------|-------------|--------------|
------------|-------------|-------------|--------------|
------------|-------------|-------------|--------------|
------------|-------------|-------------|--------------|
2-------0-1-|-2-------0-1-|-2-------0-1-|-2-------0-1--|
--0-1-2-----|---0-1-2-----|---0-1-2-----|---0-1-2------|

main riff

Solo
-----------------------|-------------------------|
12---9--10--11--10--11-|-12---9--10--11--10--11--|
-----------------------|-------------------------|
-----------------------|-------------------------|
-----------------------|-------------------------|
-----------------------|-------------------------|

And there you have it rather simple song(a little too simple if you ask me!!)
yeah...sorry bout dat. Anywayz enjoy! Comments and stuff are welcome!
Comments