Muse - Minimum Chords & Tabs

 

Minimum Chords & Tabs

Muse Chords & Tabs

Version: 1 Type: Bass Tab 0 ratings
1 star 2 stars 3 stars 4 stars 5 stars
comments

Minimum Bass Tab

Artist-Muse
Track-Minimum
Any comments questions or queries then mail me at ruled_by_secrecy_6@hotmail.com

The guitar part is already on the site so I figured I'd tab out the bass. It's seriously easy.

G|------4-----------2--4--|------4-----------2--4--|------4-----------2--4--|
D|----------3---4---------|----------3---4---------|----------3---4---------|
A|--2---------------------|--2---------------------|--2---------------------|
E|------------------------|------------------------|------------------------|

G|------4-----------2--4--|------4-----------2--4--|------4-----------2--4--|
D|----------3---4---------|----------3---4---------|----------3---4---------|
A|--2---------------------|--2---------------------|--2---------------------|
E|------------------------|------------------------|------------------------|

G|------4-----------2--4--|------4-----------2--4--|------4-----------2--4--|
D|----------3---4---------|----------3---4---------|----------3---4---------|
A|--2---------------------|--2---------------------|--2---------------------|
E|------------------------|------------------------|------------------------|
[ Tab from: http://www.guitartabs.cc/tabs/m/muse/minimum_btab.html ]
G|------4-----------2--4--|------4-----------2--4--|------4-----------2--4--|
D|----------3---4---------|----------3---4---------|----------3---4---------|
A|--2---------------------|--2---------------------|--2---------------------|
E|------------------------|------------------------|------------------------|

G|------4-----------2--4--|------4-----------2--4--|------------------------|
D|----------3---4---------|----------3---4---------|------------------------|
A|--2---------------------|--2---------------------|--2---------------0--1--|
E|------------------------|------------------------|------0---1---2---------|

G|------------------------|------------------------|------------------------|
D|------------------------|------------------------|------------------------|
A|--2---------------0--1--|--2---------------0--1--|--2---------------0--1--|
E|------0---1---2---------|------0---1---2---------|------0---1---2---------|

G|------------------------|------------------------||
D|------------------------|------------------------||
A|--2---------------0--1--|--2---------------0--1--||
E|------0---1---2---------|------0---1---2---------||
Comments