Muse - Megalomania Chords & Tabs

 

Megalomania Chords & Tabs

Muse Chords & Tabs

Version: 1 Type: Tab 0 ratings
1 star 2 stars 3 stars 4 stars 5 stars
comments

Megalomania Tab

Megalomania - Muse
Written by Matthew Bellamy
Tabbed by Claire Winter
mr_claire@hotmail.com

i know this song is normally played on organ / keyboard, but it can be played like this
on the guitar, using arpeggio and then chords. 
Questions and comments to mr_claire@hotmail.com


INTRO

  E |----------0---------------0---------------0---------------0--------|
  B |--------0---0-----------0---0-----------0---0-----------0---0------|
  G |------0-------0-------0-------0-------0-------0-------0-------0----|
  D |----2-----------2---2-----------2---2-----------2---2-----------0--| x2
  A |------------------2-------2-----------------------2-------2--------|
  E |--0-----------0-------------------0-----------0--------------------|

VERSE
                       Paradise...
  E |----------0---------------0---------------0-------------0--------|
  B |--------0---0-----------0---0-----------0---0---------0---0------|
  G |------0-------0-------0-------0-------0-------0-----0-------0----|
  D |----2-----------2---2-----------2---2-------------2-----------0--|
  A |------------------2-----------------------------2----------------|
  E |--0-------------------------------0------------------------------|
[ Tab from: http://www.guitartabs.cc/tabs/m/muse/megalomania_tab.html ]
  E |----------0-------------------------------0---------------2--------|
  B |--------0---0-------------2-------------1---1-----------0---0------|
  G |------0-------0---------3---3---------2-------2-------2-------2----|
  D |----2-----------2-----2-------2-----2-----------2---1-----------1--|
  A |--------------------4-----------4-0---------------2----------------|
  E |--0---------------2------------------------------------------------|

  E |----------0---------------0-------------------------------0--------|
  B |--------0---0-----------1---1-------------3-------------1---1------|
  G |------0-------0-------2-------2---------4---4---------2-------2----|
  D |----2-----------2---2-----------2-----5-------5-----2-----------2--|
  A |------------------3-----------------5-----------5-0----------------|
  E |--0-------------------------------3--------------------------------|

  E |----------0---------------0---------------0---------------2--------|
  B |--------0---0-----------0---0-----------1---1-----------0---0------|
  G |------0-------0-------1-------1-------2-------2-------2-------2----| 
  D |----2-----------2---2-----------2---2-----------2---1-----------1--| 
  A |----------------------------------0---------------2----------------|
  E |--3---------------4------------------------------------------------|

(repeat verse)
  
CHORUS
                 
  E |---------------|   
  B |--3-3-3-3-3-4--|   
  G |--4-4-4-4-4-4--|   
  D |--4-4-4-4-4-4--|   
  A |--5-5-5-5-5-2--|   
  E |---------------|   

      Take.......off Your Dis-Guise. I Know that Under-Neath it's You...
  E |--0---0---5------3---3---8---------3--------2-----5-----------7---|
  B |--1---1---7------3---4---8---------5--------4-----5-----------7---|
  G |--2---2---7------4---4---9---------5--------2-----5-----------9---|
  D |--2---2---7------5---5---10--------5--------4-----7-----------7---|
  A |--0---3---5------5---5---10--------3--------2-----7-----------9---|
  E |-----------------3---3---8------------------------5-----------7---|
Comments