Muse - Map Of Your Head Chords & Tabs

 

Map Of Your Head Chords & Tabs

Muse Chords & Tabs

Version: 6 Type: Tab 0 ratings
1 star 2 stars 3 stars 4 stars 5 stars
comments

Map Of Your Head Tab

   
Standard Tuning

This is a really good song. Unfortunately it's a B-side so you have to but the single. 
It's on the 2nd New Born single.This for Muse lovers everywhere!
Intro:

(No Guitar)

Verse & Chorus:

  [A]                 [D]
|--------0-------------2-2----|
|-------2---2----------3-3----|
|------2------2--------2-2-4--|
|-----2---------2-0-0---------|
|--0--------------------------|
|-----------------------------| (x2)
[ Tab from: http://www.guitartabs.cc/tabs/m/muse/map_of_your_head_tab_ver_6.html ]
  [A]                [E]              [F#m]                [D]
|------0-0-0---------------0-0-0-----------2-2-2-----------2-2----|
|-----2-------2-----------0------0--------2------2---------3-3----|
|----2----------2--------1--------1------2---------2-------2-2-4--|
|---2-------------2-0---2-----------2---4------------4-0-0--------|
|--0-------------------2---------------4--------------------------|
|---------------------0---------------2---------------------------| (x1)


Matt plays it throughout the song.The first few times Matt plays its like this. But after a while
he starts to improvise using arpeggios mainly. It's fun, easy and good!
Enjoy!!
Comments