Muse - Map Of Your Head Chords & Tabs

 

Map Of Your Head Chords & Tabs

Muse Chords & Tabs

Version: 2 Type: Tab 0 ratings
1 star 2 stars 3 stars 4 stars 5 stars
comments

Map Of Your Head Tab

   
Muse - Map of your Head

Submitted by Matt Boultwood (the_boultwood@hotmail.com)

I got fed up of the incorrect version of this song that had been posted, this sounds great and
deserves to be played correctly.


Standard Tuning
[ Tab from: http://www.guitartabs.cc/tabs/m/muse/map_of_your_head_tab_ver_2.html ]
Verse/Chorus:
   [A]                [D] 
e|--------------------5--5--7----|
B|-------5--5---------7--7-------|
G|------6-----6-------7--7-------|
D|-----7--------7--0-------------|
A|----7--------------------------|
E|--5----------------------------|

   [A]             [E]            [F#m]             [D]
e|--------------------------------------------------5--5--7---|
B|-------5--5-----------0--0-----------2--2---------7--7------|
G|------6-----6--------1-----1--------2-----2-------7--7------|
D|-----7--------7-----2--------2-----4--------4--0------------|
A|----7--------------2--------------4-------------------------|
E|--5--------------0--------------2---------------------------|
Comments