Muse - Knights Of Cydonia Chords & Tabs

 

Knights Of Cydonia Chords & Tabs

Muse Chords & Tabs

Version: 1 Type: Tab 1 rating
1 star 2 stars 3 stars 4 stars 5 stars
comments

Knights Of Cydonia Tab

song:knights of cydonia 
artist:muse                                                                          
tabbed by:dirnt

intro

             --------------------------------------------------------------
             --------------------------------------------------------------
             --------------------------------------------------------------
             --------------------------------------------------------------
             --------------------------------------------------------------
             --1---3---4---6-6---8----1---3---4---6--6---8-----------------

[ Tab from: http://www.guitartabs.cc/tabs/m/muse/knights_of_cydonia_tab.html ]
             --------------------------------------------------------------
             --------------------------------------------------------------
             --------------------------------------------------------------    +2
             --2--4---5--4-5-7--5-4-5-4---2---1----------------------------   -------------------------------------------
             --------------------------------------------------------------

verse        --------------------------------------------------------------
             -------------------------------------------------16-12----15--
             ---12-11-9-7-9-11--12-11-9-7-8-9-11-15-14-15-16--------12-----
             --------------------------------------------------------------
             --------------------------------------------------------------
             --------------------------------------------------------------
 
cont         --------------------------------------------------------------
             ---16-15-13-11-12-13-15-13-15-16-15-16-18--13---------------------------------------------
             --------------------------------------------------------------
             --------------------------------------------------------------
             --------------------------------------------------------------
             --------------------------------------------------------------

 thats it i think sorry if there is any mistakes
Comments