Muse - Invincible Chords & Tabs

 

Invincible Chords & Tabs

Muse Chords & Tabs

Version: 1 Type: Tab 0 ratings
1 star 2 stars 3 stars 4 stars 5 stars
comments

Invincible Tab

   
Muse – Invincible


Ok, this song is going to be on the new album.  I have sources which say it is
going to be called Invincible.  It's a LEGENDARY song, especiall the solo.  
And here is how to play it.

As much as I believe in spreading the word of Muse, and how to play their songs, 
please don’t just steal this, and pass it off as your own on other tab sites.  
Credit Mr Steven Garner, as this is my tab, as much as the song is Muse’s.

This, to an extent, is an interpretation of it.  You know, arguably.


Intro.  Feeback/reverb/echo with the high notes here, then go into this:
e---12\3-3—3/12\3-3-3/13\5-5-5/13\5-5-5/13\7-7-7/13\7-8-10-12~---------------------
B----------------------------------------------------------------------------------
G----------------------------------------------------------------------------------
D----------------------------------------------------------------------------------
A----------------------------------------------------------------------------------
E----------------------------------------------------------------------------------


Nothing in the first half of the verse.  Then more feedback and weird background noise


Chorus 1
   F     G     C     F     Dm    G    E    Am    F    G    (C)
e-------------------------------------12---12----13---15------------
B--13----15----13----13----15----13---12---13----13---15------------
G--14----16----------14----14----12---13---14----14---16------------
D--15----17----14----15----12---------------------------------------
A--------------15---------------------------------------------------
E-------------------------------------------------------------------
   Some of these are played, others are picked


Intro again

[ Tab from: http://www.guitartabs.cc/tabs/m/muse/invincible_tab.html ]
Verse 2
    C     F     Dm    G      E     Am    F    G    C
E---------1-----1-----3------------------1----3------------
B---1-----1-----3-----3------------1-----1----3----1-------
G---------2-----2------------1-----2-----2----4------------
D---2-----3-----0------------2-----2-----3----5----2-------
A---3-----3-----------2------2-----0-----3----5----3-------
E---------------------3------0-----------------------------
Ok, this bit is picked in the background.  Pick the strings in this order..

A  D  G  D  B  G  D  G

So, pluck those strings, in that order (almost like Radiohead’s Street Spirit), 
whilst holding down the chords at the right times!


Same goes for a chorus here.  Pick in the same order, with the Chorus chords.


Bass Breakdown!!!!

e----------------------------------------------
B----------------------------------------------
G--5-5-5-5-5-5-5-5-5-5-5-5-5-5-5-5-5-5-5-5-5~/-
D----------------------------------------------
A----------------------------------------------
E----------------------------------------------
  (It’s not so hard to get the picking/timing right, so I won’t bother tabbing it here.)


Solo
Right hand
e--15---13---12---13---15-|17---15---13---15---17-|17---15---17-|19---17---19---19---17---19-|20---19---20-|20---19---20-|--22--|
e---1---3-----------------|3---5------------------|3---5--------|5---7-----------------------|7---8--------|7---8--------|8---10|
   Left Hand

*the right hand taps every note, whilst the left hand twiddles with the 2 notes given in each section.  
He might also use the open e in the twiddles, I can’t really tell.*

End of Solo
e----10^~---10^~~----10*effect+whammy*----


Chorus X1  (full chords)
   F     G     C     F     Dm    G    E    Am    F    G    C

End on:
    C
e--------------------------------------------
B--------------------------------------------
G---5555-5555-5555-5555-5555-5555-5555-5555\-
D---5555-5555-5555-5555-5555-5555-5555-5555\-
A---3333-3333-3333-3333-3333-3333-3333-3333\-
E--------------------------------------------


Enjoy the album!

I’m not sure if the left hand twiddles in the solo are totally correct.  Any suggestions, 
go here:  gerner33@hotmail.com.

I’ve also tabbed the bass for the song

Cheeeers.
Steven Garner
xxx
Comments